Oops, an error
Loading. Please wait.

Save Me Tab

version 1
version 1
104,873 views 21 this week
no commentswrite comment
1 2 3 4 5
x 25
add to favorites
launch autoscroll
font size
0
reset
how to read this tab
guitar tuner
backing track
0:00
0:00
×
Best way to learn
"Save Me"
Autoscroll
slow
fast
+/-
esc
set tempo
stop
Difficulty
Tuning
advanced
D A D G B E
email: everythingthatmakesyouhappy@hotmail.com 
[Bass intro](0:00-0:15)

[Guitar 1](0:16-0:44)
e|-------------------------------------------------------------------------|
B|-----------------10-11~-10~-11p10p9-10~---------10-11~-10~-9~-8~---------|
G|--------------10-----------------------------10--------------------------|
D|----12~---/12----------------------------/12-----------------------------|
A|-------------------------------------------------------------------------|
D|-------------------------------------------------------------------------|

[Guitar 1]
e|------------------------------------------------------------------------|
B|------/8-10~-8~-7~----------7~-8~---------------------------------------|
G|------------------9~-7~-9~-------7~-------------------------------------|
D|------------------------------------------------------------------------|
A|------------------------------------------------------------------------|
D|------------------------------------------------------------------------|

[Guitar 2]
e|------------------------------------------------------------------------|
B|-----/5--7~-5~-3~-2~-0~-2~-3~-5~-0~-------------------------------------|
G|------------------------------------------------------------------------|
D|------------------------------------------------------------------------|
A|------------------------------------------------------------------------|
D|------------------------------------------------------------------------|
 
[Guitar 1]
e|--/10~--10-10~--9--/12~--10~--/10--10-10~--9--/12~-10-------------------|
B|-------------------------------------------------------10-12-14~--------|
G|------------------------------------------------------------------------|
D|------------------------------------------------------------------------|
A|------------------------------------------------------------------------|
D|------------------------------------------------------------------------|

[Guitar 2]
e|------------------------------------------------------------------------|
B|--/19~--19-19~--17-/20~--19~--/18~-18-18~--17--/20~-18\-13--15--17~-----|
G|------------------------------------------------------------------------|
D|------------------------------------------------------------------------|
A|------------------------------------------------------------------------|
D|------------------------------------------------------------------------|

[Guitar 1]
e|--/17--17--16--16---------------------------------17~--19~--17~---------|
B|-------------------14h17p14~-------------13--/17------------------------|
G|------------------------------------------------------------------------|
D|------------------------------------------------------------------------|
A|------------------------------------------------------------------------|
D|------------------------------------------------------------------------|

[Guitar 2]
e|------------/17--17--16--16---------------------------------------------|
B|-----------------------------14h17p14~---11---13--13---15---13~---------|
G|------------------------------------------------------------------------|
D|------------------------------------------------------------------------|
A|------------------------------------------------------------------------|
D|------------------------------------------------------------------------|

[Both Guitars](0:45-0:52)
e|-------------------------------------------------------------------------|
B|-------------------------------------------------------------------------|
G|-------------------------------------------------------------------------|
D|-----0--00000--00000--0000000000000--00000--00000--0000000000000---------|
A|-----0--00000--00000--0000000000000--00000--00000--0000000000000---------|
D|-----0--00000--00000--0000000000000--00000--00000--0000000000000---------|

[Guitar 1](0:53-1:00)
e|------------------------------------------------------------------|
B|------------------------------------------------------------------|
G|------------------------------------------------------------------|
D|--------0-------------0------------0-----2-3-0--------------------|(x2)
A|-----12---12-13----10---10-12----8---4-5--------------------------|
D|------------------------------------------------------------------|

[Guitar 2]
e|------------------------------------------------------------------|
B|------------------------------------------------------------------|
G|------------------------------------------------------------------|
D|-----0--00000--00000--0000000000000--00000--00000--0000000000000--|(x2)
A|-----0--00000--00000--0000000000000--00000--00000--0000000000000--|
D|-----0--00000--00000--0000000000000--00000--00000--0000000000000--|

[Guitar 1](1:01-1:07)
e|------------------------------------------------------------------|
B|------------------------------------------------------------------|
G|-----14----14-15~----12----12--14~----10----------9-10------------|
D|--------12--------------12---------------12-11-12------12---------|(x2)
A|------------------------------------------------------------------|
D|------------------------------------------------------------------|

[Guitar 2]
e|------------------------------------------------------------------|
B|------------------------------------------------------------------|
G|------------------------------------------------------------------|
D|--------0-------------0------------0-----2-3-0--------------------|(x2)
A|-----12---12-13----10---10-12----8---4-5--------------------------|
D|------------------------------------------------------------------|

[Guitar 3]
e|------------------------------------------------------------------|
B|------------------------------------------------------------------|
G|------------------------------------------------------------------|
D|-----0--00000--00000--0000000000000--00000--00000--0000000000000--|(x2)
A|-----0--00000--00000--0000000000000--00000--00000--0000000000000--|
D|-----0--00000--00000--0000000000000--00000--00000--0000000000000--|

[Guitar 1](4:49-5:09)
e|-------------------------------------------------------------------|
B|-------------------------------------------------------------------|
G|-------------------------------------------------------------------|
D|--------7-x-x-5-x-x-8-x-x-7-x-x-5h7--------------------------------|(x8)
A|-----00------------------------------------------------------------|
D|-----00------------------------------------------------------------|

[Pre solo]

[Solo]

[Guitar 1](5:47-6:07)
(yes theyre 10's,12's,13's'14's, and 15's)
e|-----------------------101010-12b-------------101010151515-17b-----|
B|-----------------101010-----------------121212---------------------|
G|-----------101010-----------------121212---------------------------|
D|-----121212--------------------------------------------------------|
A|-------------------------------------------------------------------|
D|-------------------------------------------------------------------|

[Guitar 1]
e|-----1313131010101313121212999-----101010--------------------------|
B|------------------------------10~--------101010--------------------|
G|-----------------------------------------------101010--------------|
D|-----------------------------------------------------12121214b-----|
A|-------------------------------------------------------------------|
D|-------------------------------------------------------------------|

************************************

| p  Pull-off
| ~  Vibrato
| /  Slide up
| \  Slide down
| h  Hammer-on
| x  Dead note
| b  Bend

************************************
Suggest correction
comments
print report bad tab
guest
You may want to rate the tab now too:
select rating
Wanna post a correction for this tab? Suggest correction