Oops, an error
Loading. Please wait.

Scream Tab

version 2
version 2

Whole song

505,867 views 288 this week
56 commentsread comments
1 2 3 4 5
excellent!
x 103
add to favorites
launch autoscroll
font size
0
reset
how to read this tab
guitar tuner
Autoscroll
slow
fast
+/-
esc
set tempo
stop
Help us to improve Ultimate-Guitar.com Take our survey!
×
Author
TUNING DROP D DOWN HALF A STEP : C# G# C# F# A# D#


[INTRO]

e|--------------------------------------------------------------------13-13-16-16--17--|
B|----------------------------------------------------13-13-15-15----------------------|
G|--------------------------------------------13-13------------------------------------|
D|--0-0---0-0---------------12-12-15-15------------------------------------------------|
A|--0-0---0-0--------12-12-------------------------------------------------------------|
E|--0-0---0-0--------------------------------------------------------------------------|

e|--------------------------------------------------------------------------------------------|
B|--------------------------------------------------------------------------------------------|
G|--------------------------------------------------------------------------------------------|
D|--0-0---0-0------------------------15-15-15-15-12-12-12-12----------------------------------|
A|--0-0---0-0-------12-12-12-12------------------------------12-12-12-12------------11-11-11--|
E|--0-0---0-0---------------------------------------------------------------------------------|

e|--------------------------------------------------------------------13-13-16-16--20b(21)--|
B|----------------------------------------------------13-13-15-15---------------------------|
G|--------------------------------------------13-13-----------------------------------------|
D|--0-0---0-0---------------12-12-15-15-----------------------------------------------------|
A|--0-0---0-0--------12-12------------------------------------------------------------------|
E|--0-0---0-0-------------------------------------------------------------------------------|

e|------------------------------------------------------------------------------------------|
B|---------------------(gradually bend the 14 up to 15 over the course of  picking 14)------|
G|--------------------14-14-14-14-14-14-14-14-14-14-14-14-14-14-14b(15)---------------------|
D|--0-0---0-0-------------------------------------------------------------------------------|
A|--0-0---0-0-------------------------------------------------------------------------------|
E|--0-0---0-0-------------------------------------------------------------------------------|


[VERSE]

e|--------------------------------------------------------------------13-13-16-16--17--|
B|----------------------------------------------------13-13-15-15----------------------|
G|--------------------------------------------13-13------------------------------------|
D|--0-0---0-0---------------12-12-15-15------------------------------------------------|
A|--0-0---0-0--------12-12-------------------------------------------------------------|
E|--0-0---0-0--------------------------------------------------------------------------|

e|-------------------------------------------------------------------------------------------|
B|-------------------------------------------------------------------------------------------|
G|-------------------------------------------------------------------------------------------|
D|--0-0---0-0------------------------15-15-15-15-12-12-12-12---------------------------------|
A|--0-0---0-0-------12-12-12-12-------------------------------12-12-12-12-----------11-11-11-|
E|--0-0---0-0--------------------------------------------------------------------------------|

e|--------------------------------------------------------------------13-13-16-16--20b(21)--|
B|----------------------------------------------------13-13-15-15---------------------------|
G|--------------------------------------------13-13-----------------------------------------|
D|--0-0---0-0---------------12-12-15-15-----------------------------------------------------|
A|--0-0---0-0--------12-12------------------------------------------------------------------|
E|--0-0---0-0-------------------------------------------------------------------------------|

e|-------------------------------------------------------------------------------------------|
B|-------------------------------------------------------------------------------------------|
G|-------------------------------------------------------------------------------------------|
D|--0-0---0-0--------------------------------------------------------------------------------|
A|--0-0---0-0--------------------------------------------------------------------------------|
E|--0-0---0-0--------------------------------------------------------------------------------|


[PRE CHORUS]

e|-----------------------------------------------------------------------------------------|
B|-----------------------------------------------------------------------------------------|
G|-----------------------------------------------------------------------------------------|
D|-----------0--0-------------0-0--3---5--6--------------0--0-------------0-0--6---5--3----|
A|-----------0--0-------------0-0--3---5--6--------------0--0-------------0-0--6---5--3----|
E|--3/12~----0--0----3/12~----0-0--3---5--6-----3/12~----0--0----3/12~----0-0--6---5--3----|

e|----------------------------------------------------------------------------------------|
B|----------------------------------------------------------------------------------------|
G|----------------------------------------------------------------------------------------|
D|-----------0--0-------------0-0--3---5-6--1-1-1-1-1-1-1-1-1-1-1-1-1---------------------|
A|-----------0--0-------------0-0--3---5-6--1-1-1-1-1-1-1-1-1-1-1-1-1---------------------|
E|--3/12~----0--0----3/12~----0-0--3---5-6--1-1-1-1-1-1-1-1-1-1-1-1-1---------------------|


[VERSE]

e|--------------------------------------------------------------------13-13-16-16--17--|
B|----------------------------------------------------13-13-15-15----------------------|
G|--------------------------------------------13-13------------------------------------|
D|--0-0---0-0---------------12-12-15-15------------------------------------------------|
A|--0-0---0-0--------12-12-------------------------------------------------------------|
E|--0-0---0-0--------------------------------------------------------------------------|

e|-------------------------------------------------------------------------------------------|
B|-------------------------------------------------------------------------------------------|
G|-------------------------------------------------------------------------------------------|
D|--0-0---0-0------------------------15-15-15-15-12-12-12-12---------------------------------|
A|--0-0---0-0-------12-12-12-12-------------------------------12-12-12-12-----------11-11-11-|
E|--0-0---0-0--------------------------------------------------------------------------------|

e|--------------------------------------------------------------------13-13-16-16--20b(21)--|
B|----------------------------------------------------13-13-15-15---------------------------|
G|--------------------------------------------13-13-----------------------------------------|
D|--0-0---0-0---------------12-12-15-15-----------------------------------------------------|
A|--0-0---0-0--------12-12------------------------------------------------------------------|
E|--0-0---0-0-------------------------------------------------------------------------------|

e|-------------------------------------------------------------------------------------------|
B|-------------------------------------------------------------------------------------------|
G|-------------------------------------------------------------------------------------------|
D|--0-0---0-0--------------------------------------------------------------------------------|
A|--0-0---0-0--------------------------------------------------------------------------------|
E|--0-0---0-0--------------------------------------------------------------------------------|


[PRE CHORUS]

(but strum 1 to the end of the bar instead of having a rest)
e|-----------------------------------------------------------------------------------------|
B|-----------------------------------------------------------------------------------------|
G|-----------------------------------------------------------------------------------------|
D|-----------0--0-------------0-0--3---5--6--------------0--0-------------0-0--6---5--3----|
A|-----------0--0-------------0-0--3---5--6--------------0--0-------------0-0--6---5--3----|
E|--3/12~----0--0----3/12~----0-0--3---5--6-----3/12~----0--0----3/12~----0-0--6---5--3----|

e|----------------------------------------------------------------------------------------|
B|----------------------------------------------------------------------------------------|
G|----------------------------------------------------------------------------------------|
D|-----------0--0-------------0-0--3---5-6--1-1-1-1-1-1-1-1-1-1-1-1-1---------------------|
A|-----------0--0-------------0-0--3---5-6--1-1-1-1-1-1-1-1-1-1-1-1-1---------------------|
E|--3/12~----0--0----3/12~----0-0--3---5-6--1-1-1-1-1-1-1-1-1-1-1-1-1---------------------|

(but strum 1 to the end of the bar instead of having a rest)


[PRE CHORUS 2] (X4)

e|-------------------------------------|
B|-------------------------------------|
G|-------------------------------------|
D|-5-5-5-5-5-5-5-5--7-7-7-7-7-7-7-7----|
A|-5-5-5-5-5-5-5-5--7-7-7-7-7-7-7-7----|
E|-5-5-5-5-5-5-5-5--7-7-7-7-7-7-7-7----|


[CHORUS] (X2)

e|------------------------------------------------------------|
B|------------------------------------------------------------|
G|------------------------------------------------------------|
D|----------7--8----------------------------------------------|
A|-5---x-5--5--6-----8---x-8---10--10----0--------1-----------|
E|-5---x-5-----------8---x-8---10--8-----0--------1-----------|


[SOLO RHYTHM] (X2)

e|------------------------------------------------------------------------------|
B|------------------------------------------------------------------------------|
G|------------------------------------------------------------------------------|
D|--0-0-----0-0-0----0-2-2-----2-2-2----2-8-8-----8-8-8-----8-7-7----7-7-7----7-|
A|--0-0-----0-0-0----0-2-2-----2-2-2----2-8-8-----8-8-8-----8-7-7----7-7-7----7-|
E|--0-0-----0-0-0----0-2-2-----2-2-2----2-8-8-----8-8-8-----8-7-7----7-7-7----7-|


[SOLO] (X2) (all in triplets apart from final note) ***UPDATED***

e|-171613--1316-------171612--1216------181713--1317---161514--1415161514-1415/21201817182021--|
B|-------14-----(X4)--------13-----(X4)-------14----(X4)-----17----------17--------------------|
G|---------------------------------------------------------------------------------------------|
D|---------------------------------------------------------------------------------------------|
A|---------------------------------------------------------------------------------------------|
E|---------------------------------------------------------------------------------------------|


[DUAL SOLO] (X4) (Rhythm same as solo above but strummed constantly)

e|------------------------------------------------------------------------------------|
B|-------------------------------------------11------------------10-------------------|
G|-7-9-10-7-9-10-/14----7-9-10-7-/15---14------12------------12----9-9-7-9-10-9-7-----|
D|-----------------------------------------------12--------12-------------------------|
A|-------------------------------------------------13-10-13---------------------------|
E|------------------------------------------------------------------------------------|

e|-------------------------------------------10------------------9--------------------|
B|-6-8-10-6-8-10-/15----6-8-10-6-/20---18------11-----------------10-8-6-8-10-8-6-----|
G|-----------------------------------------------12--------12-------------------------|
D|-------------------------------------------------12----12---------------------------|
A|----------------------------------------------------13------------------------------|
E|------------------------------------------------------------------------------------|

Breakdown sort of thing

e|-----------------------------------------------------------------------------------------|
B|-----------------------------------------------------------------------------------------|
G|-----------------------------------------------------------------------------------------|
D|---------------------------------------------------------------------0-0-6------5---3----|
A|---------------------------------------------------------------------0-0-6------5---3----|
E|-3/12--3/12--3/12-------3/12-3/12-3/12----3/12--3/12--3/12------3/12-0-0-6------5---3----|

e|------------------------------------------------------------------------------------|
B|------------------------------------------------------------------------------------|
G|------------------------------------------------------------------------------------|
D|-------------------------------------------------------1--1--1--1--1--1--1--1--1--1-|
A|-------------------------------------------------------1--1--1--1--1--1--1--1--1--1-|
E|-3/12--3/12--3/12-------3/12-3/12-3/12----3/12--3/12---1--1--1--1--1--1--1--1--1--1-|


[PRE CHORUS 2] (X4)

e|-------------------------------------|
B|-------------------------------------|
G|-------------------------------------|
D|-5-5-5-5-5-5-5-5--7-7-7-7-7-7-7-7----|
A|-5-5-5-5-5-5-5-5--7-7-7-7-7-7-7-7----|
E|-5-5-5-5-5-5-5-5--7-7-7-7-7-7-7-7----|


[CHORUS] (X2)

e|------------------------------------------------------------|
B|------------------------------------------------------------|
G|------------------------------------------------------------|
D|----------7--8----------------------------------------------|
A|-5---x-5--5--6-----8---x-8---10--10----0--------1-----------|
E|-5---x-5-----------8---x-8---10--8-----0--------1-----------|


[OUTRO] (X4)

e|-------------------------------------------------------------------------------|
B|-------------------------------------------------------------------------------|
G|-------------------------------------------------------------------------------|
D|--0-0---0-0-------------------------------0-0---0-0----------------------------|
A|--0-0---0-0-------------------------------0-0---0-0----------------------------|
E|--0-0---0-0-------------------------------0-0---0-0----------------------------|
 |
 |       (let ring)(they fade in and out)
e|-------------------------------------------------------------------------------|
B|-------10--10--10--10--10--10--10--10------------------------------------------|
G|---------12--10--12--10--12--10--12--10----------------------------------------|
D|-------------------------------------------------------------------------------|
A|-------------------------------------------------------------------------------|
E|-------------------------------------------------------------------------------|


************************************

| x  Dead note
| /  Slide up
| ~  Vibrato

************************************
Suggest correction
comments
print report bad tab
56 comments total. Showing first comments. show 1 bad comment
+2 reply
the_messenger66 1,322 wrote on October 26 2007, 09:45 pm

Sick, dude!
Can't wait for the album.
5*

-1 reply
myth302 10 wrote on October 30 2007, 10:06 pm

lil bits slightly off

guest
You may want to rate the tab now too:
select rating
Wanna post a correction for this tab? Suggest correction