Oops, an error
Loading. Please wait.

Scream tab

version 3
version 3
43,422 views 12 this week
7 commentsread comments
1 2 3 4 5
x 23
add to favorites
×
Save as Personal and add changes to this tab that will be seen only by you. Learn more ›
×
You can save this tab as Personal to edit and correct it or add notes. All changes will be seen only by you. Learn more »
launch autoscroll
font size
0
reset
how to read this tab
guitar tuner
backing track
0:00
0:00
edit
Autoscroll
slow
fast
+/-
esc
set tempo
stop
Author
Difficulty
Scream
Avenged Sevenfold
Avenged Sevenfold


Transcribed by Seth "Shadows" Sanders {F.u.c.kallyourfalsebeauty@hotmail.com}

 

C#5
0 0 0 x x x 

Cm/Eb
2 4 2 x x x 

F#5
5 5 5 x x x 

Eb/G
6 7 6 x x x 

G#5
7 7 7 x x x 


Gtr I (C# G# C# F# A# D#) - 'Rhythm I'
Gtr II (C# G# C# F# A# D#) - 'Rhythm II'
Gtr III (C# G# C# F# A# D#) - 'Lead I'
Gtr IV (C# G# C# F# A# D#) - 'Lead II'
Gtr V (C# G# C# F# A# D#) - 'Lead III'
Gtr VI (C# G# C# F# A# D#) - 'Clean Lead'


 Intro
  Q=127
  N.C.
 4/4
  Gtrs I, II
  Wx2
|--------|
|--------|
|--------|
|--------|
|--------|
|--------|


  C#5
  Gtrs I, II
  E  q  E q   Q
|------------------------|
|------------------------|
|------------------------|
|-0--0--0-0--------------|
|-0--0--0-0--------------|
|-0--0--0-0--------------|
|
| Gtr V
|             PM----------
| H.          S  S  S  S
|------------------------|
|------------------------|
|------------------------|
|------------------12-12-|
|------------12-12-------|
|------------------------|


   W
|---------------------------------------------------------|
|---------------------------------------------------------|
|---------------------------------------------------------|
|---------------------------------------------------------|
|---------------------------------------------------------|
|---------------------------------------------------------|
|
|-------------------------|                         ~~~~~
|  S  S  S  S  S  S  S  S  S  S       S      S      Q
|-------------------10-10-13-13b13.5-13pb14-14pb16-16b17--|
|-------------13-13---------------------------------------|
|-10-10-13-13---------------------------------------------|
|---------------------------------------------------------|
|---------------------------------------------------------|
|---------------------------------------------------------|


  E  q  E q   Q             W
|------------------------|----------------------------------------------|
|------------------------|----------------------------------------------|
|------------------------|----------------------------------------------|
|-0--0--0-0--------------|----------------------------------------------|
|-0--0--0-0--------------|----------------------------------------------|
|-0--0--0-0--------------|----------------------------------------------|
|
|             PM-----------------------------------------------------|~~
| H.          S  S  S  S    S  S  S  S  S  S  S  S  S  S  S  S  S  S  E
|------------------------|----------------------------------------------|
|------------------------|----------------------------------------------|
|------------------------|----------------------------------------------|
|------------------------|-15-15-15-15-12-12-12-12----------------------|
|------------12-12-12-12-|-------------------------12-12-12-12-11-11-11-|
|------------------------|----------------------------------------------|


  E  q  E q   Q             W
|------------------------|---------------------------------------------|
|------------------------|---------------------------------------------|
|------------------------|---------------------------------------------|
|-0--0--0-0--------------|---------------------------------------------|
|-0--0--0-0--------------|---------------------------------------------|
|-0--0--0-0--------------|---------------------------------------------|
|
|             PM-----------------------------------|            ~~~~~~
| H.          S  S  S  S    S  S  S  S  S  S  S  S  S  S  S  S  Q
|------------------------|-------------------10-10-13-13-16-16s20b22r==|
|------------------------|-------------13-13---------------------------|
|------------------------|-10-10-13-13---------------------------------|
|------------------12-12-|---------------------------------------------|
|------------12-12-------|---------------------------------------------|
|------------------------|---------------------------------------------|


  E  q  E q   Q      H        E Q.
|----------------|-------------------------||
|----------------|-------------------------||
|----------------|-------------------------||
|-0--0--0-0------|------------x-x----------||
|-0--0--0-0------|------------x-x----------||
|-0--0--0-0------|------------x-x----------||
|
|             TP     TP             ~~~~~~
| H.          Q     +H.             Q
|----------------|-------------------------||
|----------------|-------------------------||
|------------14--|-(14)b16---------14pb16--||
|----------------|-------------------------||
|----------------|-------------------------||
|----------------|-------------------------||


 Verse I
  $
  C#5
  E  q  E q   Q
|------------------------|
|------------------------|
|------------------------|
|-0--0--0-0--------------|
|-0--0--0-0--------------|
|-0--0--0-0--------------|
|
|             PM----------
| H.          S  S  S  S
|------------------------|
|------------------------|
|------------------------|
|------------------12-12-|
|------------12-12-------|
|------------------------|


   W
|---------------------------------------------------------|
|---------------------------------------------------------|
|---------------------------------------------------------|
|---------------------------------------------------------|
|---------------------------------------------------------|
|---------------------------------------------------------|
|
|-------------------------|                         ~~~~~
|  S  S  S  S  S  S  S  S  S  S       S      S      Q
|-------------------10-10-13-13b13.5-13pb14-14pb16-16b17--|
|-------------13-13---------------------------------------|
|-10-10-13-13---------------------------------------------|
|---------------------------------------------------------|
|---------------------------------------------------------|
|---------------------------------------------------------|


  E  q  E q   Q             W
|------------------------|----------------------------------------------|
|------------------------|----------------------------------------------|
|------------------------|----------------------------------------------|
|-0--0--0-0--------------|----------------------------------------------|
|-0--0--0-0--------------|----------------------------------------------|
|-0--0--0-0--------------|----------------------------------------------|
|
|             PM-----------------------------------------------------|~~
| H.          S  S  S  S    S  S  S  S  S  S  S  S  S  S  S  S  S  S  E
|------------------------|----------------------------------------------|
|------------------------|----------------------------------------------|
|------------------------|----------------------------------------------|
|------------------------|-15-15-15-15-12-12-12-12----------------------|
|------------12-12-12-12-|-------------------------12-12-12-12-11-11-11-|
|------------------------|----------------------------------------------|


  E  q  E q   Q             W
|------------------------|---------------------------------------------|
|------------------------|---------------------------------------------|
|------------------------|---------------------------------------------|
|-0--0--0-0--------------|---------------------------------------------|
|-0--0--0-0--------------|---------------------------------------------|
|-0--0--0-0--------------|---------------------------------------------|
|
|             PM-----------------------------------|            ~~~~~~
| H.          S  S  S  S    S  S  S  S  S  S  S  S  S  S  S  S  Q
|------------------------|-------------------10-10-13-13-16-16s20b22r==|
|------------------------|-------------13-13---------------------------|
|------------------------|-10-10-13-13---------------------------------|
|------------------12-12-|---------------------------------------------|
|------------12-12-------|---------------------------------------------|
|------------------------|---------------------------------------------|


  E q  E q  Q     H           E  E  E   E
|--------------|---------------------------||
|--------------|---------------------------||
|--------------|---------------------------||
|-0-0--0-0-----|--------------x--x--x---x--||
|-0-0--0-0-----|--------------x--x--x---x--||
|-0-0--0-0-----|--------------x--x--x---x--||
|
| Gtr VI
| W               E.  E.  E   Q     E   E
|--------------|---------------------------||
|--------------|-<5>-<7>-<7>-<5>-----------||
|--------------|-------------------<7>-----||
|--------------|-----------------------<7>-||
|--------------|-----------------------<7>-||
|--------------|---------------------------||


   Post-Chorus
    N.C.   C#5    N.C.         C#5   E5 F#G5
    Gtrs I, II
        ~~ PM         ~~~~~~~~~
    E   Q  E S E. E   E    +E  e. E. Q  E E
||----------------------|-------------------|
||o---------------------|-------------------|
||----------------------|-------------------|
||----------------------|------------3--5-6-|
||o--------0-x-0--------|------0--0--3--5-6-|
||--0sp10--0-x-0--0sp10-|-(10)-0--0--3--5-6-|


  1.
  N.C.   C#5    N.C.         C#5   C5/F#E5
      ~~ PM         ~~~~~~~~~
  E   Q  E S E. E   E    +E  e. E. Q  E E
|---------------------|---------------------||
|---------------------|--------------------o||
|---------------------|---------------------||
|---------------------|---------------------||
|--------0-x-0--------|------0--0--4--5-3--o||
|-0sp10--0-x-0--0sp10-|-(10)-0--0--6--5-3---||


  2.
                          D.S.
  D5
  Q  E E E Q  E   E E Q  q  Q
|---------------|--------------||
|---------------|--------------||
|---------------|--------------||
|-1--1-1-1-1--1-|-1-1-1--1-----||
|-1--1-1-1-1--1-|-1-1-1--1-----||
|-1--1-1-1-1--1-|-1-1-1--1-----||


 Pre-Chorus
  F#5              G#5
  Gtrs I, II
  Q  Q   E E E E   Q   Q     E  E  E E
|----------------|---------------------|
|----------------|---------------------|
|----------------|---------------------|
|-5--5---5-5-5-5-|-7---7-----7--7--7-7-|
|-5--5---5-5-5-5-|-7---7-----7--7--7-7-|
|-5--5---5-5-5-5-|-7---7-----7--7--7-7-|
|
| Gtr V
| H      H         Q.    +E  E +E  Q
|----------------|---------------------|
|----------------|---------------------|
|-------/7-------|-6-----(6)s2-(2)s5---|
|--------x-------|-x-------------------|
|-------/5-------|-4-----(4)s0-(0)s3---|
|----------------|---------------------|


  F#5                G#5
   Q   Q   E E E E   Q   Q     E  E  E E
|------------------|---------------------|
|------------------|---------------------|
|------------------|---------------------|
|--5---5---5-5-5-5-|-7---7-----7--7--7-7-|
|--5---5---5-5-5-5-|-7---7-----7--7--7-7-|
|--5---5---5-5-5-5-|-7---7-----7--7--7-7-|
|
| +H       H         Q.    +E  E +E  Q
|------------------|---------------------|
|------------------|---------------------|
|-(5)-----/7-------|-6-----(6)s2-(2)s5---|
|----------x-------|-x-------------------|
|-(3)-----/5-------|-4-----(4)s0-(0)s3---|
|------------------|---------------------|


  F#5                    G#5
   Q    Q   E  E E  E    Q   Q     E  E  E E
|----------------------|---------------------|
|----------------------|---------------------|
|----------------------|---------------------|
|--5----5---5--5-5--5--|-7---7-----7--7--7-7-|
|--5----5---5--5-5--5--|-7---7-----7--7--7-7-|
|--5----5---5--5-5--5--|-7---7-----7--7--7-7-|
|
| +Q    Q   Q.     +E    Q.    +E  E +E  Q
|----------------------|---------------------|
|----------------------|---------------------|
|-(5)s=10\--7------(7)S|=6-----(6)s2-(2)s5---|
|-----------x----------|-x-------------------|
|-(3)s==8\--5------(5)S|=4-----(4)s0-(0)s3---|
|----------------------|---------------------|


  F#5                G#5
   Q   Q   E E E E   E  E E E  E  E  E  E
|------------------|----------------------||
|------------------|----------------------||
|------------------|----------------------||
|--5---5---5-5-5-5-|-7--7-7-7--7--7--7--7-||
|--5---5---5-5-5-5-|-7--7-7-7--7--7--7--7-||
|--5---5---5-5-5-5-|-7--7-7-7--7--7--7--7-||
|
|                           PM
| +H       H         Q.     E  E  E  E  E
|------------------|----------------------||
|------------------|----------------------||
|-(5)-----/7-------|-6--------14-14-14-14-||
|----------x-------|-x---------x--x--x--x-||
|-(3)-----/5-------|-4--------12-12-12-12-||
|------------------|--------0-------------||


   Chorus
                                      1.
    F#5    C#5E       A5     B5  A5   C#5
    Gtr I
         PM
    Q  E E Q   E  E   Q  E E  Q  Q    W
||------------------|---------------|-------------|
||o-----------------|---------------|-------------|
||---------7--10-10-|---------------|-------------|
||--5--x---7---x--x-|-8--x-8-10--8--|-0-----------|
||o-5--x-5-5---8--8-|-8--x-8-10--8--|-0-----------|
||--5--x-5----------|-8--x-8-10--8--|-0-----------|
|
|   Gtr II
|        PM
|   Q  E E Q   E  E   Q  E E  Q  Q    Q  Q  Q  Q
||------------------|---------------|-------------|
||o-----------------|---------------|-------------|
||---------7---7--7-|---------------|-------------|
||--5--x---7---7--7-|-8--x-8-10--8--|-0--0--0--0--|
||o-5--x-5-5---5--5-|-8--x-8-10--8--|-0--0--0--0--|
||--5--x-5----------|-8--x-8-10--8--|-0--0--0--0--|


                  2.
  D5
  W               Wx2
|--------------||--------||
|-------------o||--------||
|--------------||--------||
|-1------------||--------||
|-1-----------o||--------||
|-1------------||--------||
|
| Q  Q  Q  Q      Wx2
|--------------||--------||
|-------------o||--------||
|--------------||--------||
|-1--1--1--1---||--------||
|-1--1--1--1--o||--------||
|-1--1--1--1---||--------||


 Verse II
  C#5
  Gtrs I, II
  E  q  E q   Q
|------------------------|
|------------------------|
|------------------------|
|-0--0--0-0--------------|
|-0--0--0-0--------------|
|-0--0--0-0--------------|
|
| Gtr V
|             PM----------
| H.          S  S  S  S
|------------------------|
|------------------------|
|------------------------|
|------------------12-12-|
|------------12-12-------|
|------------------------|


   W
|---------------------------------------------------------|
|---------------------------------------------------------|
|---------------------------------------------------------|
|---------------------------------------------------------|
|---------------------------------------------------------|
|---------------------------------------------------------|
|
|-------------------------|                         ~~~~~
|  S  S  S  S  S  S  S  S  S  S       S      S      Q
|-------------------10-10-13-13b13.5-13pb14-14pb16-16b17--|
|-------------13-13---------------------------------------|
|-10-10-13-13---------------------------------------------|
|---------------------------------------------------------|
|---------------------------------------------------------|
|---------------------------------------------------------|


  E  q  E q   Q             W
|------------------------|----------------------------------------------|
|------------------------|----------------------------------------------|
|------------------------|----------------------------------------------|
|-0--0--0-0--------------|----------------------------------------------|
|-0--0--0-0--------------|----------------------------------------------|
|-0--0--0-0--------------|----------------------------------------------|
|
|             PM-----------------------------------------------------|~~
| H.          S  S  S  S    S  S  S  S  S  S  S  S  S  S  S  S  S  S  E
|------------------------|----------------------------------------------|
|------------------------|----------------------------------------------|
|------------------------|----------------------------------------------|
|------------------------|-15-15-15-15-12-12-12-12----------------------|
|------------12-12-12-12-|-------------------------12-12-12-12-11-11-11-|
|------------------------|----------------------------------------------|


  E  q  E q   Q             W
|------------------------|---------------------------------------------|
|------------------------|---------------------------------------------|
|------------------------|---------------------------------------------|
|-0--0--0-0--------------|---------------------------------------------|
|-0--0--0-0--------------|---------------------------------------------|
|-0--0--0-0--------------|---------------------------------------------|
|
|             PM-----------------------------------|            ~~~~~~
| H.          S  S  S  S    S  S  S  S  S  S  S  S  S  S  S  S  Q
|------------------------|-------------------10-10-13-13-16-16s20b22r==|
|------------------------|-------------13-13---------------------------|
|------------------------|-10-10-13-13---------------------------------|
|------------------12-12-|---------------------------------------------|
|------------12-12-------|---------------------------------------------|
|------------------------|---------------------------------------------|


  Gtrs I, II
  E q  E q  Q    H    E E E E
|--------------|--------------||
|--------------|--------------||
|--------------|--------------||
|-0-0--0-0-----|------x-x-x-x-||
|-0-0--0-0-----|------x-x-x-x-||
|-0-0--0-0-----|------x-x-x-x-||


   Post-Chorus
    N.C.   C#5    N.C.         C#5   E5 F#G5
    Gtrs I, II
        ~~ PM         ~~~~~~~~~
    E   Q  E S E. E   E    +E  e. E. Q  E E
||----------------------|-------------------|
||o---------------------|-------------------|
||----------------------|-------------------|
||----------------------|------------3--5-6-|
||o--------0-x-0--------|------0--0--3--5-6-|
||--0sp10--0-x-0--0sp10-|-(10)-0--0--3--5-6-|


  1.
  N.C.   C#5    N.C.         C#5   C5/F#E5
      ~~ PM         ~~~~~~~~~
  E   Q  E S E. E   E    +E  e. E. Q  E E
|---------------------|---------------------||
|---------------------|--------------------o||
|---------------------|---------------------||
|---------------------|---------------------||
|--------0-x-0--------|------0--0--4--5-3--o||
|-0sp10--0-x-0--0sp10-|-(10)-0--0--6--5-3---||


  2.
  D5                     C#5
                         PM  ~~~ ~
  Q  E E E Q  E   E E Q  E   E E E
|---------------|------------------||
|---------------|------------------||
|---------------|------------------||
|-1--1-1-1-1--1-|-1-1-1--0---0-0-0-||
|-1--1-1-1-1--1-|-1-1-1--0---0-0-0-||
|-1--1-1-1-1--1-|-1-1-1--0-/10-0-0-||
                  E E Q  E   E E E


   Chorus
    F#5    C#5E       A5     B5  A5   C#5           D5
    Gtr I
         PM
    Q  E E Q   E  E   Q  E E  Q  Q    W             W
||------------------|---------------|-------------|---------------||
||o-----------------|---------------|-------------|--------------o||
||---------7--10-10-|---------------|-------------|---------------||
||--5--x---7---x--x-|-8--x-8-10--8--|-0-----------|-1-------------||
||o-5--x-5-5---8--8-|-8--x-8-10--8--|-0-----------|-1------------o||
||--5--x-5----------|-8--x-8-10--8--|-0-----------|-1-------------||
|
|   Gtr II
|        PM
|   Q  E E Q   E  E   Q  E E  Q  Q    Q  Q  Q  Q    Q  Q  Q  Q
||------------------|---------------|-------------|---------------||
||o-----------------|---------------|-------------|--------------o||
||---------7---7--7-|---------------|-------------|---------------||
||--5--x---7---7--7-|-8--x-8-10--8--|-0--0--0--0--|-1--1--1--1----||
||o-5--x-5-5---5--5-|-8--x-8-10--8--|-0--0--0--0--|-1--1--1--1---o||
||--5--x-5----------|-8--x-8-10--8--|-0--0--0--0--|-1--1--1--1----||


 Guitar Solo
  C#5
  Gtr V
   |---------------------------------3----------------------------------|
   S  S  S  S  S  S  S  S  S  S  S  S  S  S  S  S  S  S  S  S  S  S  S  S
|-18-------------16h17-------------16h17-------------16h17-------------16h|
|----18p15----15-------18p15----15-------18p15----15-------18p15----15----|
|----------18----------------18----------------18----------------18-------|
|-------------------------------------------------------------------------|
|-------------------------------------------------------------------------|
|-------------------------------------------------------------------------|
|
| Gtrs I, II
|  E        q                 E        E        q                 E
|-------------------------------------------------------------------------|
|-------------------------------------------------------------------------|
|-------------------------------------------------------------------------|
|--0--------0-----------------0--------0--------0-----------------0-------|
|--0--------0-----------------0--------0--------0-----------------0-------|
|--0--------0-----------------0--------0--------0-----------------0-------|


  Cm/Eb
   |---------------------------------3----------------------------------|
   S  S  S  S  S  S  S  S  S  S  S  S  S  S  S  S  S  S  S  S  S  S  S  S
|-17----------------17----------------17----------------17-----------------|
|----17----------17----17----------17----17----------17----17----------17--|
|-------18----18----------18----18----------18----18----------18----18-----|
|----------19----------------19----------------19----------------19--------|
|--------------------------------------------------------------------------|
|--------------------------------------------------------------------------|
|
|  E        q                 E        E        q                 E
|--------------------------------------------------------------------------|
|--------------------------------------------------------------------------|
|--------------------------------------------------------------------------|
|--2--------2-----------------2--------2--------2-----------------2S=======|
|--4--------4-----------------4--------4--------4-----------------4S=======|
|--2--------2-----------------2--------2--------2-----------------2S=======|


  A5
   |---------------------------------3----------------------------------|
   S  S  S  S  S  S  S  S  S  S  S  S  S  S  S  S  S  S  S  S  S  S  S  S
|-17-------------17h18-------------17h18-------------17h18-------------17h|
|----18p15----15-------18p15----15-------18p15----15-------18p15----15----|
|----------18----------------18----------------18----------------18-------|
|-------------------------------------------------------------------------|
|-------------------------------------------------------------------------|
|-------------------------------------------------------------------------|
|
|  E        q                 E        E        q                 E
|-------------------------------------------------------------------------|
|-------------------------------------------------------------------------|
|-------------------------------------------------------------------------|
|--8--------8-----------------8--------8--------8-----------------8-------|
|--8--------8-----------------8--------8--------8-----------------8-------|
|--8--------8-----------------8--------8--------8-----------------8-------|


  Eb/G                                G#5
                                                         ~~
   |------------------------3-------------------------|
   S  S  S  S  S  S  S  S  S  S  S  S  S  S  S  S  S  S  Q
|-18-15p14p13-14h15h17-15p14p13-14h15-18p15p14-13h14h16-17-----|
|--------------------------------------------------------------|
|--------------------------------------------------------------|
|--------------------------------------------------------------|
|--------------------------------------------------------------|
|--------------------------------------------------------------|
|
|  E        q                 E        E        q          E
|--------------------------------------------------------------|
|--------------------------------------------------------------|
|--------------------------------------------------------------|
|--6--------6-----------------6--------7--------7----------7---|
|--7--------7-----------------7--------7--------7----------7---|
|--6--------6-----------------6--------7--------7----------7---|


  C#5
   |---------------------------------3----------------------------------|
   S  S  S  S  S  S  S  S  S  S  S  S  S  S  S  S  S  S  S  S  S  S  S  S
|-18-------------16h17-------------16h17-------------16h17-------------16h|
|----18p15----15-------18p15----15-------18p15----15-------18p15----15----|
|----------18----------------18----------------18----------------18-------|
|-------------------------------------------------------------------------|
|-------------------------------------------------------------------------|
|-------------------------------------------------------------------------|
|
|  E        q                 E        E        q                 E
|-------------------------------------------------------------------------|
|-------------------------------------------------------------------------|
|-------------------------------------------------------------------------|
|--0--------0-----------------0--------0--------0-----------------0-------|
|--0--------0-----------------0--------0--------0-----------------0-------|
|--0--------0-----------------0--------0--------0-----------------0-------|


  Cm/Eb
   |---------------------------------3----------------------------------|
   S  S  S  S  S  S  S  S  S  S  S  S  S  S  S  S  S  S  S  S  S  S  S  S
|-17----------------17----------------17----------------17-----------------|
|----17----------17----17----------17----17----------17----17----------17--|
|-------18----18----------18----18----------18----18----------18----18-----|
|----------19----------------19----------------19----------------19--------|
|--------------------------------------------------------------------------|
|--------------------------------------------------------------------------|
|
|  E        q                 E        E        q                 E
|--------------------------------------------------------------------------|
|--------------------------------------------------------------------------|
|--------------------------------------------------------------------------|
|--2--------2-----------------2--------2--------2-----------------2S=======|
|--4--------4-----------------4--------4--------4-----------------4S=======|
|--2--------2-----------------2--------2--------2-----------------2S=======|


  A5
   |---------------------------------3----------------------------------|
   S  S  S  S  S  S  S  S  S  S  S  S  S  S  S  S  S  S  S  S  S  S  S  S
|-17p15----------18p17p15----------18p17p15----------18p17p15----------18p|
|-------15----15----------15----15----------15----15----------15----15----|
|----------15----------------15----------------15----------------15-------|
|-------------------------------------------------------------------------|
|-------------------------------------------------------------------------|
|-------------------------------------------------------------------------|
|
|  E        q                 E        E        q                 E
|-------------------------------------------------------------------------|
|-------------------------------------------------------------------------|
|-------------------------------------------------------------------------|
|--8--------8-----------------8--------8--------8-----------------8-------|
|--8--------8-----------------8--------8--------8-----------------8-------|
|--8--------8-----------------8--------8--------8-----------------8-------|


  Eb/G                                G#5
                                                          ~~~~
   |------------------------3-------------------------|
   S  S  S  S  S  S  S  S  S  S  S  S  S  S  S  S  S  S   Q
|-17-15p14h17-14h15h18-20p17p15-17h18-21p20p17-18h21p18-[18]-----||
|----------------------------------------------------------------||
|----------------------------------------------------------------||
|----------------------------------------------------------------||
|----------------------------------------------------------------||
|----------------------------------------------------------------||
|
|  E        q                 E        E        E         E  E
|----------------------------------------------------------------||
|----------------------------------------------------------------||
|----------------------------------------------------------------||
|--6--------6-----------------6--------7--------7---------7--7---||
|--7--------7-----------------7--------7--------7---------7--7---||
|--6--------6-----------------6--------7--------7---------7--7---||


 Guitar Duet
  C#5                               Cm/Eb
  Gtrs I, II
    Q      E    E  E  E   E   E      Q     E  E  E E  E  E
    |      |    |  |  |   |   |      |     |  |  | |  |  |
    /      /    /  /  /   /   /      /     /  /  / /  /  /

  Gtr V
   +E   e  H.                        W
|-(18)s=x-------------------------|------------------------|
|---------------------------------|------------------------|
|---------------------------------|------------------------|
|---------------------------------|------------------------|
|---------------------------------|------------------------|
|---------------------------------|------------------------|
|
| Gtr III
|                         ~~~
|   E   E  E    E  E  E   Q          E  E  E  E  Q    Q
|---------------------------------|------------------------|
|---------------------------------|------------------------|
|-------9h10-------9h10-/14-------|--------9----12s==10----|
|-/12---------/12-----------------|-11-12----11------------|
|---------------------------------|------------------------|
|---------------------------------|------------------------|
|
| Gtr IV
|                         ~~~                         ~~
|   E   E  E    E  E  E   E  +E      E  E  E  E  Q    Q
|------------------------10-(10)\-|------------------------|
|---------10---------10-----------|------------------------|
|-/10h=12------10h12--------------|-------15----15S==14----|
|---------------------------------|-14-15----14------------|
|---------------------------------|------------------------|
|---------------------------------|------------------------|


  F#5                        Eb/G         G#5
    Q     E  E  E  E  E  E     Q     E  E  Q     E  E
    |     |  |  |  |  |  |     |     |  |  |     |  |
    /     /  /  /  /  /  /     /     /  /  /     /  /

    W                          W
|--------------------------|---------------------------|
|--------------------------|---------------------------|
|--------------------------|---------------------------|
|--------------------------|---------------------------|
|--------------------------|---------------------------|
|--------------------------|---------------------------|
|
|   E  E  E  E  E  E  E  E     E  E  E  E  E  E  E  E
|-/18p15-------------------|---------------------------|
|--------15----------15----|-/17p14----------------14--|
|-----------15----15----15-|-----------13h14----14-----|
|--------------17----------|--------14-------14--------|
|--------------------------|---------------------------|
|--------------------------|---------------------------|
|
|   E  E  E  E  E  E  E  E     E  E  E  E  E  E  E  E
|--15----------------------|--15-----------------------|
|-----15-------------------|-----17----------------17--|
|--------15----------15----|--------15-17-18----18-----|
|-----------17----17----17-|-----------------19--------|
|--------------17----------|---------------------------|
|--------------------------|---------------------------|


  C#5                             Cm/Eb
  Gtrs I, II
    E  E  E   E  E  E   E   E      E  E  E  E  E E  E E
    |  |  |   |  |  |   |   |      |  |  |  |  | |  | |
    /  /  /   /  /  /   /   /      /  /  /  /  / /  / /

  Gtr III
                        ~~~                         ~~
    E  E  E   E  E  E   E  +E      E  E  E  E  Q    Q
|-------------------------------|-----------------------|
|-------------------------------|-----------------------|
|------9h10------9h10-/14-(14)\-|--------9----12---10---|
|-/12-------/12-----------------|-11-12----11-----------|
|-------------------------------|-----------------------|
|-------------------------------|-----------------------|
|
| Gtr IV
|                       ~~~                         ~~
|   E  E  E   E  E  E   E  +E      E  E  E  E  Q    Q
|----------------------10-(10)\-|-----------------------|
|--------10--------10-----------|-----------------------|
|-/10h12-----10h12--------------|-------15----15S==14---|
|-------------------------------|-14-15----14-----------|
|-------------------------------|-----------------------|
|-------------------------------|-----------------------|


  F#5                        Eb/G         G#5
    E  E  E  E  E  E  E  E     Q     Q     Q     Q
    |  |  |  |  |  |  |  |     |     |     |     |
    /  /  /  /  /  /  /  /     /     /     /     /

    E  E  E  E  E  E  E  E     E  E  E  E  E  E  E  E
|-/18p15-------------------|--------------------------|
|--------15----------15----|-/17p14----------------14-|
|-----------15----15----15-|-----------13h14----14----|
|--------------17----------|--------14-------14-------|
|--------------------------|--------------------------|
|--------------------------|--------------------------|
|
|   E  E  E  E  E  E  E  E     E  E  E  E  E  E  E  E
|--15----------------------|--15----------------------|
|-----15-------------------|-----17----------------17-|
|--------15----------15----|--------15-17-18----18----|
|-----------17----17----17-|-----------------19-------|
|--------------17----------|--------------------------|
|--------------------------|--------------------------|


  C#5                             Cm/Eb
    E  E  E   E  E  E   E   E      E  E  E  E    E E  E E
    |  |  |   |  |  |   |   |      |  |  |  |    | |  | |
    /  /  /   /  /  /   /   /      /  /  /  /    / /  / /

                        ~~~                      ~~~~~~~
    E  E  E   E  E  E   Q          E  E  E  E    Q    Q
|-------------------------------|-------------------------|
|-------------------------------|-------------------------|
|------9h10------9h10-/14-------|--------9-----/12---10---|
|-/12-------/12-----------------|-11-12----11-------------|
|-------------------------------|-------------------------|
|-------------------------------|-------------------------|
|
|                       ~~~                      ~~~
|   E  E  E   E  E  E   E  +E      E  E  E  E    H
|----------------------10-(10)\-|-------------------------|
|--------10--------10-----------|-------------------------|
|-/10h12-----10h12--------------|-------15-----/15--------|
|-------------------------------|-14-15----14\------------|
|-------------------------------|-------------------------|
|-------------------------------|-------------------------|


  F#5                        Eb/G         G#5
    E  E  E  E  E  E  E  E     Q     Q     Q     Q
    |  |  |  |  |  |  |  |     |     |     |     |
    /  /  /  /  /  /  /  /     /     /     /     /

    E  E  E  E  E  E  E  E     E  E  E  E  E  E  E  E
|-/18p15-------------------|--------------------------|
|--------15----------15----|-/17p14----------------14-|
|-----------15----15----15-|-----------13h14----14----|
|--------------17----------|--------14-------14-------|
|--------------------------|--------------------------|
|--------------------------|--------------------------|
|
|   E  E  E  E  E  E  E  E     E  E  E  E  E  E  E  E
|--15----------------------|--15----------------------|
|-----15-------------------|-----17----------------17-|
|--------15----------15----|--------15-17-18----18----|
|-----------17----17----17-|-----------------19-------|
|--------------17----------|--------------------------|
|--------------------------|--------------------------|


  C#5                             Cm/Eb
    E  E  E   E  E  E   E   E      E  E  E  E    E E  E E
    |  |  |   |  |  |   |   |      |  |  |  |    | |  | |
    /  /  /   /  /  /   /   /      /  /  /  /    / /  / /

                        ~~~                      ~~~~~~~
    E  E  E   E  E  E   Q          E  E  E  E    Q    Q
|-------------------------------|-------------------------|
|-------------------------------|-------------------------|
|------9h10------9h10-/14-------|--------9------12---10---|
|-/12-------/12-----------------|-11-12----11-------------|
|-------------------------------|-------------------------|
|-------------------------------|-------------------------|
|
|                       ~~~                      ~~~
|   E  E  E   E  E  E   E  +E      E  E  E  E    H
|----------------------10-(10)\-|-------------------------|
|--------10--------10-----------|-------------------------|
|-/10h12-----10h12--------------|-------15-----/15--------|
|-------------------------------|-14-15----14\------------|
|-------------------------------|-------------------------|
|-------------------------------|-------------------------|


  F#5                        Eb/G         G#5
    E  E  E  E  E  E  E  E     Q     Q     Q     Q
    |  |  |  |  |  |  |  |     |     |     |     |
    /  /  /  /  /  /  /  /     /     /     /     /

    E  E  E  E  E  E  E  E     E  E  E  E  E  E  E  E
|-/18p15-------------------|---------------------------||
|--------15----------15----|-/17p14--------------------||
|-----------15----15----15-|-----------13h14----14p12\-||
|--------------17----------|--------14-------14--------||
|--------------------------|---------------------------||
|--------------------------|---------------------------||
|
|   E  E  E  E  E  E  E  E     E  E  E  E  E  E  E  E
|--15----------------------|--15-----------------------||
|-----15-------------------|-----17--------------------||
|--------15----------15----|--------15-17-18----18-17\-||
|-----------17----17----17-|-----------------19--------||
|--------------17----------|---------------------------||
|--------------------------|---------------------------||


 Verse III
  N.C.                                    E5F#5
  Gtrs I, II
      ~~     ~~     ~~~~~~~~~    ~~
  E   Q  E   Q  E   E    +E  E   Q  E   E E E
|---------------------|-----------------------|
|---------------------|-----------------------|
|---------------------|-----------------------|
|---------------------|-----------------------|
|---------------------|-------------------3-5-|
|-0sp10--0sp10--0sp10-|-(10)-0sp10--0sp10-3-5-|


  N.C.                              C5/E5F#5
      ~~     ~~     ~~~~~~~~~    ~~
  E   Q  E   Q  E   E    +E  E   Q  Q  E E
|---------------------|--------------------|
|---------------------|--------------------|
|---------------------|--------------------|
|---------------------|--------------------|
|---------------------|-------------4--3-5-|
|-0sp10--0sp10--0sp10-|-(10)-0sp10--6--3-5-|


  N.C.                                    E5F#5
      ~~     ~~     ~~~~~~~~~    ~~
  E   Q  E   Q  E   E    +E  E   Q  E   E E E
|---------------------|-----------------------|
|---------------------|-----------------------|
|---------------------|-----------------------|
|---------------------|-----------------------|
|---------------------|-------------------3-5-|
|-0sp10--0sp10--0sp10-|-(10)-0sp10--0sp10-3-5-|


  D5                        C#5
  E E E E E E E E   E E E E E E E E
|-----------------|-----------------||
|-----------------|-----------------||
|-----------------|-----------------||
|-1-1-1-1-1-1-1-1-|-1-1-1-1-0-0-0-0-||
|-1-1-1-1-1-1-1-1-|-1-1-1-1-0-0-0-0-||
|-1-1-1-1-1-1-1-1-|-1-1-1-1-0-0-0-0-||


 Pre-Chorus
  F#5              G#5
  Gtrs I, II
  Q  Q   E E E E   Q   Q     E  E  E E
|----------------|---------------------|
|----------------|---------------------|
|----------------|---------------------|
|-5--5---5-5-5-5-|-7---7-----7--7--7-7-|
|-5--5---5-5-5-5-|-7---7-----7--7--7-7-|
|-5--5---5-5-5-5-|-7---7-----7--7--7-7-|
|
| Gtr V
| H      H         Q.    +E  E +E  Q
|----------------|---------------------|
|----------------|---------------------|
|-------/7-------|-6-----(6)s2-(2)s5---|
|--------x-------|-x-------------------|
|-------/5-------|-4-----(4)s0-(0)s3---|
|----------------|---------------------|


  F#5                G#5
   Q   Q   E E E E   Q   Q     E  E  E E
|------------------|---------------------|
|------------------|---------------------|
|------------------|---------------------|
|--5---5---5-5-5-5-|-7---7-----7--7--7-7-|
|--5---5---5-5-5-5-|-7---7-----7--7--7-7-|
|--5---5---5-5-5-5-|-7---7-----7--7--7-7-|
|
| +H       H         Q.    +E  E +E  Q
|------------------|---------------------|
|------------------|---------------------|
|-(5)-----/7-------|-6-----(6)s2-(2)s5---|
|----------x-------|-x-------------------|
|-(3)-----/5-------|-4-----(4)s0-(0)s3---|
|------------------|---------------------|


  F#5                  G#5
  Q   Q   E  E E  E    Q   Q     E  E  E E
|--------------------|---------------------|
|--------------------|---------------------|
|--------------------|---------------------|
|-5---5---5--5-5--5--|-7---7-----7--7--7-7-|
|-5---5---5--5-5--5--|-7---7-----7--7--7-7-|
|-5---5---5--5-5--5--|-7---7-----7--7--7-7-|
|
| Q   Q   Q.     +E    Q.    +E  E +E  Q
|--------------------|---------------------|
|--------------------|---------------------|
|-5s=10\--7------(7)S|=6-----(6)s2-(2)s5---|
|---------x----------|-x-------------------|
|-3s==8\--5------(5)S|=4-----(4)s0-(0)s3---|
|--------------------|---------------------|


  F#5                G#5
   Q   Q   E E E E   E  E E E  E  E  E  E
|------------------|----------------------||
|------------------|----------------------||
|------------------|----------------------||
|--5---5---5-5-5-5-|-7--7-7-7--7--7--7--7-||
|--5---5---5-5-5-5-|-7--7-7-7--7--7--7--7-||
|--5---5---5-5-5-5-|-7--7-7-7--7--7--7--7-||
|
|                           PM
| +H       H         Q.     E  E  E  E  E
|------------------|----------------------||
|------------------|----------------------||
|-(5)-----/7-------|-6--------14-14-14-14-||
|----------x-------|-x---------x--x--x--x-||
|-(3)-----/5-------|-4--------12-12-12-12-||
|------------------|--------0-------------||


   Chorus
                                      1.
    F#5    C#5E       A5     B5  A5   C#5
    Gtr I
         PM
    Q  E E Q   E  E   Q  E E  Q  Q    W
||------------------|---------------|-------------|
||o-----------------|---------------|-------------|
||---------7--10-10-|---------------|-------------|
||--5--x---7---x--x-|-8--x-8-10--8--|-0-----------|
||o-5--x-5-5---8--8-|-8--x-8-10--8--|-0-----------|
||--5--x-5----------|-8--x-8-10--8--|-0-----------|
|
|   Gtr II
|        PM
|   Q  E E Q   E  E   Q  E E  Q  Q    Q  Q  Q  Q
||------------------|---------------|-------------|
||o-----------------|---------------|-------------|
||---------7---7--7-|---------------|-------------|
||--5--x---7---7--7-|-8--x-8-10--8--|-0--0--0--0--|
||o-5--x-5-5---5--5-|-8--x-8-10--8--|-0--0--0--0--|
||--5--x-5----------|-8--x-8-10--8--|-0--0--0--0--|


                  2.
  D5
  W               Wx2
|--------------||--------||
|-------------o||--------||
|--------------||--------||
|-1------------||--------||
|-1-----------o||--------||
|-1------------||--------||
|
| Q  Q  Q  Q      Wx2
|--------------||--------||
|-------------o||--------||
|--------------||--------||
|-1--1--1--1---||--------||
|-1--1--1--1--o||--------||
|-1--1--1--1---||--------||


 Outro
  C#5
  Gtrs I, II
  E q   E q   Q     W                   E q     E q    Q     W
|-----------------|-----------------|----------------------|------------------|
|-----------------|-----------------|----------------------|------------------|
|-----------------|-----------------|----------------------|------------------|
|-0-0---0-0-------|-----------------|---0-0-----0-0--------|------------------|
|-0-0---0-0-------|-----------------|---0-0-----0-0--------|------------------|
|-0-0---0-0-------|-----------------|---0-0-----0-0--------|------------------|
|
| Gtr VI
| E E E E E E E E   E E E E E E E E     E E  E  E E  E E E   E E  E E E E E E
|---0h1---0h1-5p0-|-----0---3p0-1p0-|--/8p5--------------7p|=5----------------|
|-3-----3---------|-2h3---2---------|--------5---------5---|---5------5---3---|
|-------------7---|-----------7-----|-----------5----5-----|------5-----5---5-|
|---5h7---5h7---5-|-----5---5---7p5-|-/10-7-------7------9-|-7------7---------|
|-5-----5---------|-4h5---4---------|-------10---------7---|---7------7---5---|
|-----------------|-----------------|----------10p7-10-----|-----10p7---6---6-|
  E E E E E E E E   E E E E E E E E     E E  E  E E  E E E   E E  E E E E E E


   E  q   E q   Q     W                 E q   E q   Q     W
|-------------------|-----------------|-----------------|-----------------|
|-------------------|-----------------|-----------------|-----------------|
|-------------------|-----------------|-----------------|-----------------|
|--0--0---0-0-------|-----------------|-0-0---0-0-------|-----------------|
|--0--0---0-0-------|-----------------|-0-0---0-0-------|-----------------|
|--0--0---0-0-------|-----------------|-0-0---0-0-------|-----------------|
|
|  H        H         W                 W                 W
|--8\-------2-0-----|-------------0---|-5---------------|-3---0-----------|
|-----------3---3---|-5---------3---3-|-----------------|---3---1---------|
|---------0-------0-|---------1-------|-2-------2-------|-0-------2-------|
|-------2-----------|-2-----0---------|---2---2-------2-|-----------2-----|
|-/3----------------|---3-2-----------|-----0-----2h3---|-------------0h2-|
|-------------------|-----------------|-----------------|-----------------|
   Q    E E E E E E   E E E E E E E E   E E E E E E E E   E E E E E E E E


  E q   E q   Q     W                 E q   E q   Q     W
|-----------------|-----------------|-----------------|-----------------|
|-----------------|-----------------|-----------------|-----------------|
|-----------------|-----------------|-----------------|-----------------|
|-0-0---0-0-------|-----------------|-0-0---0-0-------|-----------------|
|-0-0---0-0-------|-----------------|-0-0---0-0-------|-----------------|
|-0-0---0-0-------|-----------------|-0-0---0-0-------|-----------------|
|
| E E E E E E E E   E E E E E E E E   E E E E E E E E   E E E E E E E E
|---0h1---0h1-5p0-|-----0---3p0-1p0-|---0h1---0h1-5p0-|-----0---3p0-1p0-|
|-3-----3---------|-2h3---2---------|-3-----3---------|-2h3---2---------|
|-------------7---|-----------7-----|-------------7---|-----------7-----|
|---5h7---5h7---5-|-----5---5---7p5-|---5h7---5h7---5-|-----5---5---7p5-|
|-5-----5---------|-4-5---4---------|-5-----5---------|-4-5---4---------|
|-----------------|-----------------|-----------------|-----------------|
  E E E E E E E E   E E E E E   E E   E E E E E E E E   E E E E E E E E


  E q   E q   Q     W                 E q   E q   Q     W
|-----------------|-----------------|-----------------|-----------------|
|-----------------|-----------------|-----------------|-----------------|
|-----------------|-----------------|-----------------|-----------------|
|-0-0---0-0-------|-----------------|-0-0---0-0-------|-----------------|
|-0-0---0-0-------|-----------------|-0-0---0-0-------|-----------------|
|-0-0---0-0-------|-----------------|-0-0---0-0-------|-----------------|
|
| E E E E E E E E   E E E E E E E E   E E E E E E E E   E E E E E E E E
|---0h1---0h1-5p0-|-----0---3p0-1p0-|---0h1---0h1-5p0-|-----0---3p0-1p0-|
|-3-----3---------|-2h3---2---------|-3-----3---------|-2h3---2---------|
|-------------7---|-----------7-----|-------------7---|-----------7-----|
|---5h7---5h7---5-|-----5---5---7p5-|---5h7---5h7---5-|-----5---5---7p5-|
|-5-----5---------|-4h5---4---------|-5-----5---------|-4h5---4---------|
|-----------------|-----------------|-----------------|-----------------|
  E E E E E E E E   E E E E E E E E   E E E E E E E E   E E E E E E E E


  E q   E q   Q     W                 E q   E  q   Q    W
|-----------------|-----------------|-----------------|------*|
|-----------------|-----------------|-----------------|------*|
|-----------------|-----------------|-----------------|------*|
|-0-0---0-0-------|-----------------|-0-0---0--0------|------*|
|-0-0---0-0-------|-----------------|-0-0---0--0------|------*|
|-0-0---0-0-------|-----------------|-0-0---0--0------|------*|
|
| E E E E E E E E   E E E E E E E E   E E E E +H        W
|---0h1---0h1-5p0-|-----0---3p0-1p0-|---0h1-----------|------*|
|-3-----3---------|-2h3---2---------|-3-----3-(3)-----|------*|
|-------------7---|-----------7-----|-----------------|------*|
|---5h7---5h7---5-|-----5---5---7p5-|-----------------|------*|
|-5-----5---------|-4h5---4---------|-5---------------|------*|
|-----------------|-----------------|-----------------|------*|
  E E E E E E E E   E E E E E E E E   w




--------------------------------------------------------------------------------


Duration Legend
---------------
W - whole; H - half; Q - quarter; E - 8th; S - 16th; T - 32nd; X - 64th; a - acciaccatura
+ - note tied to previous; . - note dotted; .. - note double dotted
Uncapitalized letters represent notes that are staccato (1/2 duration)
Irregular groupings are notated above the duration line
Duration letters will always appear directly above the note/fret number it represents the
duration for.  Duration letters with no fret number below them represent rests.  Multi-
bar rests are notated in the form Wxn, where n is the number of bars to rest for.  Low
melody durations appear below the staff

Tablature Legend
----------------
 h   - hammer-on
 p   - pull-off
 b   - bend
 pb  - pre-bend
 r   - bend release (if no number after the r, then release immediately)
 /\  - slide into or out of (from/to "nowhere")
 s   - legato slide
 S   - shift slide
 - natural harmonic
[n]  - artificial harmonic
n(n) - tapped harmonic
 ~   - vibrato
 tr  - trill
 T   - tap
 TP  - trem. picking
 PM  - palm muting
\n/  - tremolo bar dip; n = amount to dip
 \n  - tremolo bar down
 n/  - tremolo bar up
/n\  - tremolo bar inverted dip
 =   - hold bend; also acts as connecting device for hammers/pulls
 <> - volume swell (louder/softer)
 x   - on rhythm slash represents muted slash
 o   - on rhythm slash represents single note slash

Misc Legend
-----------
 |  - bar
||  - double bar
||o - repeat start
o|| - repeat end
*|  - double bar (ending)
 :  - bar (freetime)
 $  - Segno
 &  - Coda
Tempo markers -  = BPM(8/16=s8/s16), where s8 = swing 8ths, s16 = swing 16ths

            
            
Suggest correction
Creating personal tab
Creating personal tab
You can edit any tab online and save it as your Personal.

You can edit, replace or remove any tab part or add personal notes – all changes will be seen only by you.

Personal tabs can be accessed anytime from any device, even offline.
Learn more »
comments
print report bad tab
7 comments total. Showing first comments.
-2 reply
J0SH169 26 Nov 03, 2007 06:50 AM

prettty dam good

0 reply
Carl6661 2,151 Nov 03, 2007 10:50 AM

i meant to click 4 but i got it wrong, i thought it was at the other end of the scroller, sorry!

0 reply
Seth Shadows 4,633 Nov 03, 2007 11:05 AM

You can change the rating by re-rating it.

guest
You may want to rate the tab now too:
select rating
Wanna post a correction for this tab? Suggest correction