Oops, an error
Loading. Please wait.

Second Heartbeat Tab

version 1
145,355 views 63 this week
14 commentsread comments
1 2 3 4 5
x 31
add to favorites
launch autoscroll
font size
0
reset
how to read this tab
guitar tuner
Autoscroll
slow
fast
+/-
esc
set tempo
stop
Help us to improve Ultimate-Guitar.com Take our survey!
×
Author
these guys are the best, http://avengedsevenfold.com/ for more band info...

riff a (figure out how many times yourself)
e|----------------------------------------------------|
B|----------------------------------------------------|
G|----------------------------------------------------|
D|----------------------------------------------------|
A|3-3-3-3-3-3-3-3-3-3-3-3-3-3-3-3-3-3-3-3-3-3-3-3-3-3-|
E|----------------------------------------------------|

riff b (x4)
e|--------------------------------------------------|-----|
B|1---1-3---3-4---4-3-1-------4-3-1--------8-6-4-3--|1~---|
G|--0-----0-----0-------3---5-------3---5-----------|--0~-|
D|------------------------6-----------6-------------|-----|
A|--------------------------------------------------|-----|
E|--------------------------------------------------|-----|

riff c (x2)
e|---------------------------------------------------|
B|---------------------------------------------------|
G|5555-7777-88888888---------------------------------|
D|-------------------6666666655555555----------------|
A|3333-5555-66666666-6666666655555555----------------|
E|-------------------6666666655555555----------------|

riff d
e|---------------------------------------------------|
B|---------------------------------------------------|
G|5555x-7777x-8888x 8888x----------------------------|
D|5555x-7777x-8888x-8888x-6666666655555555-----------|
A|3333x-5555x-6666x 6666x-6666666655555555-----------|
E|------------------------6666666655555555-----------|

riff c (x1)
e|------------------------------------|-----------8^-|
B|------------------------------------|--------------|
G|5555-7777-88888888------------------|--------------|
D|-------------------6666666655555555-|-55555555-----|
A|3333-5555-66666666-6666666655555555-|-55555555-----|
E|-------------------6666666655555555-|-55555555-----|

riff e (x1)
e|---------------------------------------------------|
B|---------------------------------------------------|
G|5-7-8-13-12-10-12-5-7-8-13-12-10-15----------------|
D|---------------------------------------------------|
A|3-5-6-11-10-8--10-3-5-6-11-10-8--13----------------|
E|---------------------------------------------------|

riff f (x1)
e|---------------------------------------------------------------------------|
B|13~-13~-11-13-13-13-13-13-13-13-13-11-11-11-11-11-11-11-11-6-6-6-6-6-6-6-6-|
G|---------------------------------------------------------------------------|
D|10~-10~-8--10-10-10-10-10-10-10-10-8--8--8--8--8--8--8--8--3-3-3-3-3-3-3-3-|
A|---------------------------------------------------------------------------|
E|---------------------------------------------------------------------------|

riff f continued
e|-------------------------------------------------------------------|
B|8-8-8-8-8-8-8-8-4-4-4-4-4-4-4-4-6-6-6-6-8-8-8-8-4-4-4-4-6-6-6-6----|
G|----------------------------------------------------------------5~-|
D|5-5-5-5-5-5-5-5-1-1-1-1-1-1-1-1-3-3-3-3-5-5-5-5-3-3-3-3-5-5-5-5----|
A|----------------------------------------------------------------3~-|
E|-------------------------------------------------------------------|

riff g (x2)
e|---------------------------------------------------|
B|---------------------------------------------------|
G|---------------------------------------------------|
D|5555555-555555-5-5555555-5-6-6-5-5-----------------|
A|3333333-333333-3-3333333-3-6-6-5-5-----------------|
E|---------------------------6-6-5-5-----------------|

riff h (x1)
e|---------------------------------------------------|
B|---------------------------------------------------|
G|---------------------------------------------------|
D|55555555555555555555555555-6-6-5-5-----------------|
A|33333333333333333333333333-6-6-5-5-----------------|
E|---------------------------6-6-5-5-----------------|

riff g (x1)

riff i (x1)
e|---------------------------------------------------|
B|---------------------------------------------------|
G|0-------1-------3-------4/7------------------------|
D|--3-1-0---3-1-0---3-1-0----------------------------|
A|---------------------------------------------------|
E|---------------------------------------------------|

riff j (x2)
e|---------------------------------------------------|
B|---------------------------------------------------|
G|---------------------------------------------------|
D|55555555-33333333-66666666-55555555----------------|
A|33333333-11111111-66666666-55555555----------------|
E|------------------66666666-55555555----------------|

riff k (x4)
e|---------------------------------------------------|
B|1---1-3---3-4---4-4-3-1----------------------------|
G|--0-----0-----0---------3--------------------------|
D|---------------------------------------------------|
A|---------------------------------------------------|
E|---------------------------------------------------|

riff l (x3)
e|---------------------------------------------------------------------|
B|---------------------------------------------------------------------|
G|---------------------------------------------------------------------|
D|5555555555555555-7777777777777777-88888888-77777777-5555555555555555-|
A|3333333333333333-5555555555555555-66666666-55555555-3333333333333333-|
E|---------------------------------------------------------------------|

riff l #2 (x1)
e|---------------------------------------------------|
B|---------------------------------------------------|
G|---------------------------------------------------|
D|5555555555555555-7777777777777777-8~-7~-5~~--------|
A|3333333333333333-5555555555555555-6~-5~-3~~--------|
E|---------------------------------------------------|

riff m (x1)
e|---------------------------------------------------|
B|-------------9---11-13-----------------------------|
G|5~-7-3~-5~-8---8-----------------------------------|
D|-------------6---8--10-----------------------------|
A|3~-5-1~-3~-6---6-----------------------------------|
E|---------------------------------------------------|

riff n (x4)
e|---------------------------------------------------|
B|---------------------------------------------------|
G|---------------------------------------------------|
D|10~-0-1-0-1-0-33333-5555-8888----------------------|
A|10~-0-1-0-1-0-33333-5555-8888----------------------|
E|10~-0-1-0-1-0-33333-5555-8888----------------------|

riff o (x4)
e|----------------------------------------------------------------|
B|----------------------------------------------------------------|
G|----------------------------------------------------------------|
D|0x-0-1-0-1-00-0000000000000000-0x-0-1-0-1-00-00000000-3333-1111-|
A|0x-0-1-0-1-00-0000000000000000-0x-0-1-0-1-00-00000000-3333-1111-|
E|0x-0-1-0-1-00-0000000000000000-0x-0-1-0-1-00-00000000-3333-1111-|
mmmmmmmmmmmmmmmm mmmmmmmm mmmm mmmm

riff p (x1)
e|---------------------------------------------------|
B|---------------------------------------------------|
G|7~-7-5-3~-5~---------------------------------------|
D|---------------------------------------------------|
A|5~-5-3-1~-3~---------------------------------------|
E|---------------------------------------------------|

riff b (x4)
e|--------------------------------------------------|----|
B|1---1-3---3-4---4-3-1-------4-3-1--------8-6-4-3--|----|
G|--0-----0-----0-------3---5-------3---5-----------|-5~-|
D|------------------------6-----------6-------------|----|
A|--------------------------------------------------|-3~-|
E|--------------------------------------------------|----|

riff l (x2)
e|---------------------------------------------------------------------|
B|---------------------------------------------------------------------|
G|---------------------------------------------------------------------|
D|5555555555555555-7777777777777777-88888888-77777777-5555555555555555-|
A|3333333333333333-5555555555555555-66666666-55555555-3333333333333333-|
E|---------------------------------------------------------------------|

riff b (x4) (it's played differently in some parts)
e|--------------------------------------------------|
B|1---1-3---3-4---4-3-1-------4-3-1--------8-6-4-3--|
G|--0-----0-----0-------3---5-------3---5-----------|
D|------------------------6-----------6-------------|
A|--------------------------------------------------|
E|--------------------------------------------------|

riff l (x8) (here's where the gnarly solo is)
e|---------------------------------------------------------------------|
B|---------------------------------------------------------------------|
G|---------------------------------------------------------------------|
D|5555555555555555-7777777777777777-88888888-77777777-5555555555555555-|
A|3333333333333333-5555555555555555-66666666-55555555-3333333333333333-|
E|---------------------------------------------------------------------|


SOLO! (i only figured out part of it... sorry)

e||----------------------------------------------11--13-13/15-13----|
B||---/13-------------11--13/15-11------------11--------------------|
G||------12~--------------------------------------------------------|
D||----------13-12-13---------------15~----15-----------------------|
A||-----------------------------------------------------------------|
D||-----------------------------------------------------------------|


e||---------------------------|----------------------------------------|
B||-16--13-13h15-13-11h13-----|--/13-----------------11--13/15-11------|
G||-----------------------12--|-----12---------------------------------|
D||---------------------------|-------13-12-13-12-13---------------15~-|
A||---------------------------|----------------------------------------|
D||---------------------------|----------------------------------------|

e||------------------15-13-------15/18--15-13--------|-then---------20~--|
B||------------------------16-13--------------16-13~-|--they-------------|
G||--------------------------------------------------|---go--------------|
D||-15...fast stuff...-------------------------------|--frickin'---------|
A||--------------------------------------------------|--crazy and end on-|
D||--------------------------------------------------|-------------------|


whew... that's the best song ever, sorry i couldn't get it perfect.

************************************

| ~  Vibrato
| x  Dead note
| /  Slide up
| h  Hammer-on

************************************
Suggest correction
comments
print report bad tab
14 comments total. Showing first comments.
0 reply
Nothingface_78 1,576 Oct 18, 2003 12:00 AM

Riff n is wrong...should be..

|--------------------------------|
|-5-5------------------3-3--5-5--|
|-3-3---0-1-0-1-3-5-5--1-1--2-2--|
|-------0-1-0-1-3-5-5------------|

0 reply
CvPrEpKiLLaH 160 Mar 17, 2004 12:00 AM

No, it's right. I did it by ear and it matches perfectly, maybe the tone your guitar is off...

0 reply
GodOfFire16 10 Sep 09, 2004 12:00 AM

not bad, missing a couple parts tho

guest
You may want to rate the tab now too:
select rating
Wanna post a correction for this tab? Suggest correction