Oops, an error
Loading. Please wait.

Second Heartbeat bass

version 3
version 3
2,687 views 3 this week
no commentswrite comment
1 2 3 4 5
x 6
add to favorites
×
Save as Personal and add changes to this tab that will be seen only by you. Learn more ›
×
You can save this tab as Personal to edit and correct it or add notes. All changes will be seen only by you. Learn more »
launch autoscroll
font size
0
reset
guitar tuner
backing track
0:00
0:00
edit
Autoscroll
slow
fast
+/-
esc
set tempo
stop
0:03
G|----------------------------------|
D|----------------------------------|
A|-33333333333333333333333333333333-|
D|----------------------------------|
   1 + 2 + 3 + 4 + 1 + 2 + 3 + 4 + 

G|-------------------------------------------------------------------------------------------------|
D|-------------------------------------------------------------------------------------------------|
A|-3---------------------------------------3---1---------------------------------------------------|
D|-------------------------------------------------6-----------------------3-----------5-----------|
   1 + 2 + 3 + 4 + 5 + 6 + 1 + 2 + 3 + 4 + 5 + 6 + 1 + 2 + 3 + 4 + 5 + 6 + 1 + 2 + 3 + 4 + 5 + 6 + 

G|-------------------------------------------------------------------------------------------------|
D|-------------------------------------------------------------------------------------------------|
A|-3-----------------------3---5---6---5---3---1---------------------------------------------------|
D|-------------------------------------------------6-----------------------3-----------5-----------|
   1 + 2 + 3 + 4 + 5 + 6 + 1 + 2 + 3 + 4 + 5 + 6 + 1 + 2 + 3 + 4 + 5 + 6 + 1 + 2 + 3 + 4 + 5 + 6 + 

0:21
G|------------------------------------------------------------------|
D|------------------------------------------------------------------|
A|-33333333333333333333333333333333---------------------------------|
D|---------------------------------66666666666666663333333355555555-|
   1 + 2 + 3 + 4 + 1 + 2 + 3 + 4 + 1 + 2 + 3 + 4 + 1 + 2 + 3 + 4 +

G|------------------------------------------------------------------|
D|------------------------------------------------------------------|
A|-33333333333333333335556655533311---------------------------------|
D|---------------------------------66666666666666663333333355555555-|
   1 + 2 + 3 + 4 + 1 + 2 + 3 + 4 + 1 + 2 + 3 + 4 + 1 + 2 + 3 + 4 +

G|---------------------------------|
D|---------------------------------|
A|-3-------------------------------|
D|---------------------------------|
   1 + 2 + 3 + 4 + 1 + 2 + 3 + 4 +

0:38
G|-------------------------------------------------------------------|
D|o-----------------------------------------------------------------o|
A|o-3-33-33-5-55-55-6-66-66-----------------------------------------o|
D|--------------------------5-55-55-6-66-66-6-66-66-5-55-55-5-55-55--|
    1 + 2 + 3 + 4 + 1 + 2 + 3 + 4 + 1 + 2 + 3 + 4 + 1 + 2 + 3 + 4 +

G|-----------------------------------------------------------------|
D|-----------------------------------------------------------------|
A|-3333----5555----6666--------------------------------------------|
D|-------------------------5555----6-66-66-6-66-66-5-55-55-5-55-55-|
   1 + 2 + 3 + 4 + 1 + 2 + 3 + 4 + 1 + 2 + 3 + 4 + 1 + 2 + 3 + 4 +

G|-----------------------------------------------------------------|
D|-----------------------------------------------------------------|
A|-3-33-33-5-55-55-6-66-66-----------------------------------------|
D|-------------------------5-55-55-6-66-66-6-66-66-5-55-55-5-55-55-|
   1 + 2 + 3 + 4 + 1 + 2 + 3 + 4 + 1 + 2 + 3 + 4 + 1 + 2 + 3 + 4 +

G|---------------------------------|
D|---------------------------------|
A|---------------------------------|
D|-1-1-1-1-1-1-1-1-0-0-0-0---------|
   1 + 2 + 3 + 4 + 1 + 2 + 3 + 4 +

1:02
G|-----------------------------------------------------------------|
D|-----------------6---6-6-6-6-----------------5---8---8---8---8---|
A|-3-----5-----6-------------------6-----8-------------------------|
D|-----------------------------------------------------------------|
   1 + 2 + 3 + 4 + 1 + 2 + 3 + 4 + 1 + 2 + 3 + 4 + 1 + 2 + 3 + 4 +

G|-----------------------------------------------------------------|
D|-----------------6---6-6-6-6-----------------5---8-8-8-8-8-8-8-8-|
A|-3-----5-----6-------------------6-----8-------------------------|
D|-----------------------------------------------------------------|
   1 + 2 + 3 + 4 + 1 + 2 + 3 + 4 + 1 + 2 + 3 + 4 + 1 + 2 + 3 + 4 +

1:11
G|-------------------------------------------------------------------|
D|o-----------------------------------------------------------------o|
A|o-3-3-3-3-3-3-3-3-----------------------------------1-1-1-1-1-1-1-o|
D|--------------------6-6-6-6-6-6-6-1-1-1-1-1-1-1-1------------------|
    1 + 2 + 3 + 4 + 1 + 2 + 3 + 4 + 1 + 2 + 3 + 4 + 1 + 2 + 3 + 4 +

G|-----------------------------------------------------------------|
D|-----------------------------------------------------------------|
A|-3---------------------------------------------------------------|
D|-----------------------------------------------------------------|
   1 + 2 + 3 + 4 + 1 + 2 + 3 + 4 + 1 + 2 + 3 + 4 + 1 + 2 + 3 + 4 +

1:27
G|-----------------------------------------------------------------|
D|-----------------------------------------------------------------|
A|-3---33333-------333333333---3---333333333---3-------------------|
D|-------------------------------------------------6---6---3---3---|
   1 + 2 + 3 + 4 + 1 + 2 + 3 + 4 + 1 + 2 + 3 + 4 + 1 + 2 + 3 + 4 +

G|-----------------------------------------------------------------|
D|-----------------------------------------------------------------|
A|-333333333-------333333333---3---333333333---3-------------------|
D|-------------------------------------------------6---6---3---3---|
   1 + 2 + 3 + 4 + 1 + 2 + 3 + 4 + 1 + 2 + 3 + 4 + 1 + 2 + 3 + 4 +

G|-----------------------------------------------------------------|
D|-----------------------------------------------------------------|
A|-333333333333333333333333333333333333333333333333----------------|
D|-------------------------------------------------6---6---3---3---|
   1 + 2 + 3 + 4 + 1 + 2 + 3 + 4 + 1 + 2 + 3 + 4 + 1 + 2 + 3 + 4 +

G|-----------------------------------------------------------------|
D|-----------------------------------------------------------------|
A|-333333333-------333333333---3---333333333---3-------------------|
D|-------------------------------------------------6---6---3---3---|
   1 + 2 + 3 + 4 + 1 + 2 + 3 + 4 + 1 + 2 + 3 + 4 + 1 + 2 + 3 + 4 +

G|---------------------------------|
D|---------------------------------|
A|-3-------------------------------|
D|-----------------------------10\-|
   1 + 2 + 3 + 4 + 1 + 2 + 3 + 4 +

1:51
G|-----------------------------------------------------------------|
D|-----------------------------------------------------------------|
A|-3-3-3-3---3-3---1-1-1-1---1-1-----------------1-1-1-1---1-1-1-1-|
D|---------------------------------6-6-6-6---6-6-------------------|
   1 + 2 + 3 + 4 + 1 + 2 + 3 + 4 + 1 + 2 + 3 + 4 + 1 + 2 + 3 + 4 +

G|-----------------------------------------------------------------|
D|-----------------------------------------------------------------|
A|-3-3-3-3---3-3-3-1-1-1-1---1-1-1-----------------1---1---1---1---|
D|---------------------------------6-6-6-6---6-6-6-----------------|
   1 + 2 + 3 + 4 + 1 + 2 + 3 + 4 + 1 + 2 + 3 + 4 + 1 + 2 + 3 + 4 +

2:01
G|-----------------------------------------------------------------|
D|-----------------------------------------------------------------|
A|-3-3-3-3---3-3-3-1-1-1-1---1-1-1-----------------1-1-1-1-1-1-1-1-|
D|---------------------------------6-6-6-6---6-6-6-----------------|
   1 + 2 + 3 + 4 + 1 + 2 + 3 + 4 + 1 + 2 + 3 + 4 + 1 + 2 + 3 + 4 +

G|-----------------------------------------------------------------|
D|-----------------------------------------------------------------|
A|-3-3-3-3---3-3-3-1-1-1-1---1-1-1---------------1-1-1-1-1---1-1-1-|
D|---------------------------------6-6-6-6---6-6-------------------|
   1 + 2 + 3 + 4 + 1 + 2 + 3 + 4 + 1 + 2 + 3 + 4 + 1 + 2 + 3 + 4 +

G|-------------------------------------------------------------------|
D|o-----------------------------------------------------------------o|
A|o-3-3-3-3---3-3-3-1-1-1-1---1-1-1---------------1-1-1-1-1-1-1-1-1-o|
D|----------------------------------6-6-6-6---6-6--------------------|
    1 + 2 + 3 + 4 + 1 + 2 + 3 + 4 + 1 + 2 + 3 + 4 + 1 + 2 + 3 + 4 +

2:22
G|------------------------------------------------------------------|
D|o-----------------5-5-3-3-----------------------------------------|
A|o-3-3-3-3-3-3-3-3---------6-6-5-5-1-1-1-1-1-1-1-1-5-5-6-6-8-8-6-6-|
D|------------------------------------------------------------------|
    1 + 2 + 3 + 4 + 1 + 2 + 3 + 4 + 1 + 2 + 3 + 4 + 1 + 2 + 3 + 4 +

G|------------------------------------------------------------------|
D|-------------------------------------------------5-3-------------o|x4
A|-----------------1-1-1-1-1-1-1-1-3-3-3-1-3-1-3-5-----6-5-6-5-3-1-o|
D|-1-1-1-1-1-1-1-1--------------------------------------------------|
   1 + 2 + 3 + 4 + 1 + 2 + 3 + 4 + 1 + 2 + 3 + 4 + 1 + 2 + 3 + 4 +

3:03
G|-----------------------------------------------------------------|
D|-----------------------------------------------------------------|
A|-3-------------------------------1-------------------------------|
D|-----------------------------------------------------------------|
   1 + 2 + 3 + 4 + 1 + 2 + 3 + 4 + 1 + 2 + 3 + 4 + 1 + 2 + 3 + 4 +

G|-----------------------------------------------------------------|
D|-----------------------------------------------------------------|
A|-------------------------------------------------1---------------|
D|-3---------------------------5---6-------------------------------|
   1 + 2 + 3 + 4 + 1 + 2 + 3 + 4 + 1 + 2 + 3 + 4 + 1 + 2 + 3 + 4 +

3:14
G|-------------------------------------------------------------------|
D|o-----------------------------------------------------------------o|
A|o-3---3-------------------------------------------1-1-----2-2-----o|x4
D|--------------0---1---0---1---3---5-5------------------------------|
    1 + 2 + 3 + 4 + 1 + 2 + 3 + 4 + 1 + 2 + 3 + 4 + 1 + 2 + 3 + 4 +

3:34
G|------------------------------------------------------------------|
D|o-----------------------------------------------------------------|
A|o-----------------------------------------------------------------|
D|--0-----------0---1---0---1---0---0---0---0-0-0-0-0-0-0-0-0-0-0-0-|
    1 + 2 + 3 + 4 + 1 + 2 + 3 + 4 + 1 + 2 + 3 + 4 + 1 + 2 + 3 + 4 +

G|------------------------------------------------------------------|
D|-----------------------------------------------------------------o|
A|-----------------------------------------------------------------o|
D|-0-----------0---1---0---1---0---0---0---0-0-0-0-3-3-3-3-2-2-2-2--|
   1 + 2 + 3 + 4 + 1 + 2 + 3 + 4 + 1 + 2 + 3 + 4 + 1 + 2 + 3 + 4 +

3:55
G|-----------------------------------------------------------------|
D|-----------------------------------------------------------------|
A|-----------------------------0---1---------------2---------------|
D|-0---------------0---2---3---------------------------------------|
   1 + 2 + 3 + 4 + 1 + 2 + 3 + 4 + 1 + 2 + 3 + 4 + 1 + 2 + 3 + 4 +

G|-------------------------------------------------------------------------------------------------|
D|-------------------------------------------------------------------------------------------------|
A|-3-----------------------------------------------------------------------------------------------|
D|-------------------------------------------------6-----------------------3-----------5-----------|
   1 + 2 + 3 + 4 + 5 + 6 + 1 + 2 + 3 + 4 + 5 + 6 + 1 + 2 + 3 + 4 + 5 + 6 + 1 + 2 + 3 + 4 + 5 + 6 + 

G|-------------------------------------------------------------------------------------------------|
D|-------------------------------------------------------------------------------------------------|
A|-3-----------------------3---5---6---5---3-------------------------------------------------------|
D|---------------------------------------------5---6-----------------------3-----------5-----------|
   1 + 2 + 3 + 4 + 5 + 6 + 1 + 2 + 3 + 4 + 5 + 6 + 1 + 2 + 3 + 4 + 5 + 6 + 1 + 2 + 3 + 4 + 5 + 6 + 

4:21
G|------------------------------------------------------------------|
D|o-----------------------------------------------------------------|
A|o-3-3-3-3-3-3-3-3-3-3-3-3-3-3-3-3-3-3-3-3-3-3-3-3-3-3-3-3-3-3-3-3-|
D|------------------------------------------------------------------|
    1 + 2 + 3 + 4 + 1 + 2 + 3 + 4 + 1 + 2 + 3 + 4 + 1 + 2 + 3 + 4 +

G|------------------------------------------------------------------|
D|-----------------------------------------------------------------o|
A|-----------------------------------------------------------------o|
D|-6-6-6-6-6-6-6-6-6-6-6-6-6-6-6-6-3-3-3-3-3-3-3-3-5-5-5-5-5-5-5-5--|
   1 + 2 + 3 + 4 + 1 + 2 + 3 + 4 + 1 + 2 + 3 + 4 + 1 + 2 + 3 + 4 +

G|-----------------------------------------------------------------|
D|-----------------------------------------------------------------|
A|-3---------------------------------------------------------------|
D|-----------------------------------------------------------------|
   1 + 2 + 3 + 4 + 1 + 2 + 3 + 4 + 1 + 2 + 3 + 4 + 1 + 2 + 3 + 4 +

4:47
G|------------------------------------------------------------------|
D|o-----------------5-5-3-3-----------------------------------------|
A|o-3-3-3-3-3-3-3-3---------6-6-5-5-1-1-1-1-1-1-1-1-5-5-6-6-8-8-6-6-|
D|------------------------------------------------------------------|
    1 + 2 + 3 + 4 + 1 + 2 + 3 + 4 + 1 + 2 + 3 + 4 + 1 + 2 + 3 + 4 +

G|------------------------------------------------------------------|
D|-------------------------------------------------5-3-------------o|
A|-----------------1-1-1-1-1-1-1-1-3-3-3-1-3-1-3-5-----6-5-6-5-3-1-o|
D|-1-1-1-1-1-1-1-1--------------------------------------------------|
   1 + 2 + 3 + 4 + 1 + 2 + 3 + 4 + 1 + 2 + 3 + 4 + 1 + 2 + 3 + 4 +

5:08 
G|-----------------------------------------------------------------|
D|-----------------------------------------------------------------|
A|-3-3-3-3-3-3-3-3-1-1-1-1-1-1-1-1-----------------1-1-1-1-1-1-1-1-|
D|---------------------------------6-6-6-6---6-6-6-----------------|
   1 + 2 + 3 + 4 + 1 + 2 + 3 + 4 + 1 + 2 + 3 + 4 + 1 + 2 + 3 + 4 +

G|-----------------------------------------------------------------|
D|-----------------------------------------------------------------|
A|-3-----3---3-3-3-1-1-1-1---1-1-1-----------------1-1-1-1-1-1-1-1-|
D|---------------------------------6-6-6-6-6-6-6-6-----------------|
   1 + 2 + 3 + 4 + 1 + 2 + 3 + 4 + 1 + 2 + 3 + 4 + 1 + 2 + 3 + 4 +

G|-----------------------------------------------------------------|
D|-----------------------------------------------------------------|
A|-3-----3---3-3-3-1-1-1-1-1-1-1-1-----------------1-1-1-1-1-1-1-1-|
D|---------------------------------6-6-6-6-6-6-6-6-----------------|
   1 + 2 + 3 + 4 + 1 + 2 + 3 + 4 + 1 + 2 + 3 + 4 + 1 + 2 + 3 + 4 +


G|-----------------------------------------------------------------|
D|-----------------------------------------------------------------|
A|-3-----3---3-3-3-1-1-1-1-1-1-1-1-----------------1---1---1---1---|
D|---------------------------------6---6---6---6-------------------|
   1 + 2 + 3 + 4 + 1 + 2 + 3 + 4 + 1 + 2 + 3 + 4 + 1 + 2 + 3 + 4 +

5:29
G|------------------------------------------------------------------|
D|o-----------------5-5-3-3-----------------------------------------|
A|o-3-3-3-3-3-3-3-3---------6-6-5-5-1-1-1-1-1-1-1-1-5-5-6-6-8-8-6-6-|
D|------------------------------------------------------------------|
    1 + 2 + 3 + 4 + 1 + 2 + 3 + 4 + 1 + 2 + 3 + 4 + 1 + 2 + 3 + 4 +

G|------------------------------------------------------------------|
D|-------------------------------------------------5-3-------------o|
A|-----------------1-1-1-1-1-1-1-1-3-3-3-1-3-1-3-5-----6-5-6-5-3-1-o|x4
D|-1-1-1-1-1-1-1-1--------------------------------------------------|
   1 + 2 + 3 + 4 + 1 + 2 + 3 + 4 + 1 + 2 + 3 + 4 + 1 + 2 + 3 + 4 +

6:10
G|-----------------------------------------------------------------|
D|-----------------------------------------------------------------|
A|-3-3-3-3-3-3-3-3-3-3-3-3-3-3-3-3-1-1-1-1-1-1-1-1-1-1-1-1-1-1-1-1-|
D|-----------------------------------------------------------------|
   1 + 2 + 3 + 4 + 1 + 2 + 3 + 4 + 1 + 2 + 3 + 4 + 1 + 2 + 3 + 4 +

G|-----------------------------------------------------------------|
D|-----------------------------------------------------------------|
A|-----------------1-1-1-1-1-1-1-1-3-3-3-3-3-3-3-3-3-3-3-3-3-3-3-3-|
D|-1-1-1-1-1-1-1-1-------------------------------------------------|
   1 + 2 + 3 + 4 + 1 + 2 + 3 + 4 + 1 + 2 + 3 + 4 + 1 + 2 + 3 + 4 +

G|-----------------------------------------------------------------|
D|-----------------------------------------------------------------|
A|-3-3-3-3-3-3-3-3-3-3-3-3-3-3-3-3-1-1-1-1-1-1-1-1-1-1-1-1-1-1-1-1-|
D|-----------------------------------------------------------------|
   1 + 2 + 3 + 4 + 1 + 2 + 3 + 4 + 1 + 2 + 3 + 4 + 1 + 2 + 3 + 4 +

G|-----------------------------------------------------------------|
D|-----------------------------------------------------------------|
A|-----------------1-1-1-1-1-1-1-1-3---3---3---3---3---3---3---3---|
D|-1-1-1-1-1-1-1-1-------------------------------------------------|
   1 + 2 + 3 + 4 + 1 + 2 + 3 + 4 + 1 + 2 + 3 + 4 + 1 + 2 + 3 + 4 +

6:32
G|-----------------------------------------------------------------|
D|-----------------------------------------------------------------|
A|-3---3---3---3---3---3---3---3---1---1---1---1---1---1---1---1---|
D|-----------------------------------------------------------------|
   1 + 2 + 3 + 4 + 1 + 2 + 3 + 4 + 1 + 2 + 3 + 4 + 1 + 2 + 3 + 4 +

G|-----------------------------------------------------------------|
D|-----------------------------------------------------------------|
A|-----------------1---1---1---1---3--3--3-3--3--3-3--3--3-3--3--3-|
D|-1---1---1---1---------------------------------------------------|
   1 + 2 + 3 + 4 + 1 + 2 + 3 + 4 + Triplet Triplet Triplet Triplet

G|-----------------------------------------------------------------|
D|-----------------------------------------------------------------|
A|-3---3---3---3---3---3---3---3---1---1---1---1---1---1---1---1---|
D|-----------------------------------------------------------------|
   1 + 2 + 3 + 4 + 1 + 2 + 3 + 4 + 1 + 2 + 3 + 4 + 1 + 2 + 3 + 4 +

G|-----------------------------------------------------------------|
D|-----------------------------------------------------------------|
A|-----------------1---------------3-------------------------------|
D|-1---------------------------------------------------------------|
   1 + 2 + 3 + 4 + 1 + 2 + 3 + 4 + 1 + 2 + 3 + 4 + 1 + 2 + 3 + 4 +
Tabbed by Dave Vucko

            
            
Suggest correction
Creating personal tab
Creating personal tab
You can edit any tab online and save it as your Personal.

You can edit, replace or remove any tab part or add personal notes – all changes will be seen only by you.

Personal tabs can be accessed anytime from any device, even offline.
Learn more »
comments
print report bad tab
guest
You may want to rate the tab now too:
select rating
Wanna post a correction for this tab? Suggest correction