Oops, an error
Loading. Please wait.

Second Heartbeat bass

version 4
version 4
650 views 1 this week
no commentswrite comment
1 2 3 4 5
2 more votes to show rating
add to favorites
×
Save as Personal and add changes to this tab that will be seen only by you. Learn more ›
×
You can save this tab as Personal to edit and correct it or add notes. All changes will be seen only by you. Learn more »
launch autoscroll
font size
0
reset
guitar tuner
backing track
0:00
0:00
edit
Autoscroll
slow
fast
+/-
esc
set tempo
stop
Second Heartbeat:

Enjoy


INTRO:
G:----------------------------------------------------------------------------------|
D:----------------------------------------------------------------------------------|
A:333333333333333333333333333333333333333333333333333333333333333333333333-3~-------|
D:----------------------------------------------------------------------------------|

G:-----------------------------------------------------------------------------------|
D:-----------------------------------------------------------------------------------|
A:-3-1-----------3~-5-6-5-3-1-0~-3-5--333333-333333-333333-333333--------------------|
D:-----6~-4~-6~------------------------------------------------------666666----------|

G:-----------------------------------------------------------------------------------|
D:-----------------------------------------------------------------------------------|
A:------------------------333333-333333-333333-333333--------------------------------|
D:-666666-333333-555555--------------------------------666666-666666-333333----------|

G:------------|
D:------------|
A:---------3~-|
D:-555555-----|

Verse: "We Keep Writing, Talking, and Planning"
G:-----------------------------------------------|
D:-----------------------------------------------|
A:-33-3-55-5-66-6--------------------------------|    (x2)
D:-----------------44-4-66-6-66-6-44-4-44-4------|

G:---------------------------------------------|
D:---------------------------------------------|
A:-3333-5555-6666------------------------------|
D:-----------------4444-66-6-66-6-44-4-44-4----|

G:------------------------------------------------------------|
D:------------------------------------------------------------|
A:-33-3-55-5-66-6---------------------------------------------|
D:-----------------44-4-66-6-66-6-44-4-44-4-11-1-11-1-0000----|

Post-Verse
G:-----------------------|
D:-----------------------|
A:-3/5-6/10~-6/8-9/13----|  (x2)
D:-----------------------|

G:----------------------------------------------------------------------------|
D:----------------------------------------------------------------------------|
A:-3-33-33--------------------11-11-1-3-33-33--------------------11-11-1-3~---|
D:---------46-46-46-111-1-11------------------46-46-46-111-1-11---------------|

Breakdown 1:
G:-------------------------------------|
D:-------------------------------------|
A:-33-3333-3-33333-3-33333-------------|   (x2)
D:---------------------------6-6-3-3---|

G:-----------------------------------------------------------------------------------|
D:-----------------------------------------------------------------------------------|
A:-3333333333333333333333333333333333333333333---------------------------------------|
D:-------------------------------------------------6-6-3-3---------------------------|

G:-------------------------------------|
D:-------------------------------------|
A:-3-333-3-3333-33-3333-33-------------|
D:---------------------------6-6-3-3---|

Pre-Chorus:
G:-----------------------------------------------------------------------|
D:-----------------------------------------------------------------------|
A:-3-33-33--------------------------3-33-33------------------------------|   (x3)
D:---------8-88-88-6-66-66-8-88-88----------8-88-88-6-66-66-8-88-88------|

Chorus: "As Time Passes By"
G:-----------------------------------------------------------------------------------|
D:------------------55-33-11-00------------------------------------------------------|
A:-3-3-3-3-3-3-3-3--------------11111111111111-------------------1-1-1-1-1-1-1-1-----|
D:------------------------------------------------1-1-1-1-1-1-1-1--------------------|

G:-----------------------------------------------------------------------------------|
D:--------------1-3/5-3---3-5-3--------------------55-33-11-00-----------------------|
A:-3-3-3-0-3-0----------5-------5-3-3-3-3-3-3-3-3--------------11111111111111--------|
D:-----------------------------------------------------------------------------------|

G:-----------------------------------------------------------------------------------|
D:-----------------------------------------------------------------------------------|
A:------------------1-1-1-1-1-1-1-1-3-3-3-3-3-3-3-3----------------------------------|
D:-1-1-1-1-1-1-1-1-------------------------------------------------------------------|

G:-----------------------------------------------------------------------------------|
D:------------------55-33-11-00------------------------------------------------------|
A:-3-3-3-3-3-3-3-3--------------11111111111111-------------------1-1-1-1-1-1-1-1-----|
D:------------------------------------------------1-1-1-1-1-1-1-1--------------------|

G:-----------------------------------------------------------------------------------|
D:-----------------------1--1-3--------------------------55-33-11-00-----------------|
A:-3-3-3-3-3-3-3-3-3-3-3--3----3-1/3---3-3-3-3-3-3-3-3-------------11111111111111----|
D:-----------------------------------------------------------------------------------|

G:-----------------------------------------------------|
D:-----------------------------------------------------|
A:------------------1-1-1-1-1-1-1-1-3-3-3-3-3-3-3-3----|
D:-1-1-1-1-1-1-1-1-------------------------------------|

Post-Chorus:
G:------------------|
D:------------------|
A:-3~-3-1~--------2-|
D:---------4~-6-8---|

G:-----------------------------------------------|
D:-----------------------------------------------|
A:-3------------00-11-22-3------------00-11-22---| (x2)
D:---1-2-1-3-5-------------1-2-1-3-5-------------|


Breakdown 2:
G:-----------------------------------------------------------------------------------|
D:-----------------------------------------------------------------------------------|
A:-----------------------------------------------------------------------------------|
D:-0~-0-1-0-1-0-0-0000000000000000-1-0-1-0-1-0-0-0-0000000022221111------------------|

G:-----------------------------------------------------------------------------------|
D:-----------------------------------------------------------------------------------|
A:-----------------------------------------------------------------------------------|
D:-0~-0-1-0-1-0-0-0000000000000000-1-0-1-0-1-0-0-0-0000000033332222------------------|

G:--------------------------------------------------------|
D:-------------------------------------0-1-0-3-1-0-1------|
A:-------------0-1~-2~-3~----------3~----------------3~---|
D:-0-xx-0-2-3-------------6~-3~-5~------------------------|

Pre-Chorus:
G:---------------------------------------------------------------|
D:---------------------------------------------------------------|
A:-3333333333333333333-------------------------------------------| (x2)
D:-----------------------6666666666666666-44444444-555555555-----|

                                                                 G:-----------|
                                                                 D:-----------|
Last time with ^^^^this^^^^ add this ->) A:-3~--------------------------------|
                                                                 D:-----------|

Chorus:
G:-----------------------------------------------------------------------------------|
D:------------------55-33-11-00------------------------------------------------------|
A:-3-3-3-3-3-3-3-3--------------11111111111111-------------------1-1-1-1-1-1-1-1-----|
D:------------------------------------------------1-1-1-1-1-1-1-1--------------------|

G:-----------------------------------------------------------------------------------|
D:--------------1-3/5-3---3-5-3--------------------55-33-11-00-----------------------|
A:-3-3-3-0-3-0----------5-------5-3-3-3-3-3-3-3-3--------------11111111111111--------|
D:-----------------------------------------------------------------------------------|

G:-----------------------------------------------------|
D:-----------------------------------------------------|
A:------------------1-1-1-1-1-1-1-1-3-3-3-3-3-3-3-3----|
D:-1-1-1-1-1-1-1-1-------------------------------------|

Bridge:
G:-----------------------------------------------------------------------|
D:-----------------------------------------------------------------------|
A:-3-33-33--------------------------3-33-33------------------------------|   (x2)
D:---------8-88-88-6-66-66-8-88-88----------8-88-88-6-66-66-8-88-88------|

Chorus:
G:-----------------------------------------------------------------------------------|
D:------------------55-33-11-00------------------------------------------------------|
A:-3-3-3-3-3-3-3-3--------------11111111111111-------------------1-1-1-1-1-1-1-1-----|
D:------------------------------------------------1-1-1-1-1-1-1-1--------------------|

G:-----------------------------------------------------------------------------------|
D:--------------1-3/5-3---3-5-3--------------------55-33-11-00-----------------------|
A:-3-3-3-0-3-0----------5-------5-3-3-3-3-3-3-3-3--------------11111111111111--------|
D:-----------------------------------------------------------------------------------|

G:-----------------------------------------------------|
D:-----------------------------------------------------|
A:------------------1-1-1-1-1-1-1-1-3-3-3-3-3-3-3-3----|
D:-1-1-1-1-1-1-1-1-------------------------------------|

G:-----------------------------------------------------------------------------------|
D:------------------55-33-11-00------------------------------------------------------|
A:-3-3-3-3-3-3-3-3--------------11111111111111-------------------1-1-1-1-1-1-1-1-----|
D:------------------------------------------------1-1-1-1-1-1-1-1--------------------|

G:-------------------|
D:-------------------|
A:-3-3-3-3-3-3-3-3---| (x2)
D:-------------------|

Syn's Solo:
G:-----------------------------------------------------------------------------------|
D:-----------------------------------------------------------------------------------|
A:-3-3-3-3-3-3-3-3-3-3-3-3-3-1-1-1-1-1-1-1-1-1-1-1-1-1-1-----------------------------|
D:----------------------------------------------------------1-1-1-1-1-1-1-1-1-1-1-1--|

G:-----------------------------------------------------------------|
D:-----------------------------------------------------------------|
A:-1-1-1-1-1-1-1-1-1-1-1-1-1-1-1-3-3-3-3-3-3-3-3-3-3-3-3-3-3-3-----| (x4)
D:-----------------------------------------------------------------|

            
            
Suggest correction
Creating personal tab
Creating personal tab
You can edit any tab online and save it as your Personal.

You can edit, replace or remove any tab part or add personal notes – all changes will be seen only by you.

Personal tabs can be accessed anytime from any device, even offline.
Learn more »
Give kudos to tab author, rate the tab!
1 2 3 4 5
comments
print report bad tab
guest
You may want to rate the tab now too:
select rating
Wanna post a correction for this tab? Suggest correction