Oops, an error
Loading. Please wait.

Second Heartbeat tab

version 6
2,840 views 1 this week
1 commentread comment
1 2 3 4 5
x 3
add to favorites
×
Save as Personal and add changes to this tab that will be seen only by you. Learn more ›
×
You can save this tab as Personal to edit and correct it or add notes. All changes will be seen only by you. Learn more »
launch autoscroll
font size
0
reset
how to read this tab
guitar tuner
backing track
0:00
0:00
edit
Autoscroll
slow
fast
+/-
esc
set tempo
stop
Author
Difficulty
Artist: Avenged Sevenfold  |  Last update 23.December 09
Album:  Walking of Fallen  |
----------------------------

Hi guys, this is my 1st tab. This song really ROCKS!
I think it's 99% accurate.
It took me really long time to do it. Enjoy!


Gtr I (D A D G B E) - Synyster Gates
Gtr II (D A D G B E) - Zacky Vengeance
-----------------------------------------------------------------------------

Guitar I - Synyster gates

Intro:
 PM----------------------------------------------------------------|
|---------------------------------|---------------------------------|
|---------------------------------|---------------------------------|
|---------------------------------|---------------------------------|
|---------------------------------|---------------------------------|
|-3-3-3-3-3-3-3-3-3-3-3-3-3-3-3-3-|-3-3-3-3-3-3-3-3-3-3-3-3-3-3-3-3-|
|---------------------------------|---------------------------------|

Pre-verse:
 2x 
|------------------------------||
|------------------------------||
|-5--------5-3-----------------||
|-5--------5-3-6--------3----5-||
|-3--------3-1-6--------3----5-||
|--------------6--------3----5-||
 
 2x
 PM-----------------------------|   PM-----------------------------|
|--------------------------------| |--------------------------------|
|--------------------------------| |--------------------------------|
|5-5-5-5-5-5-5-5-5-5-5-5-5-5-5-5-| |--------------------------------|
|5-5-5-5-5-5-5-5-5-5-5-5-5-5-5-5-| |6-6-6-6-6-6-6-6-6-6-6-6-6-6-6-6-|
|3-3-3-3-3-3-3-3-3-3-3-3-3-3-3-3-| |6-6-6-6-6-6-6-6-6-6-6-6-6-6-6-6-|
|--------------------------------| |6-6-6-6-6-6-6-6-6-6-6-6-6-6-6-6-|

 PM------------------------------------------------|
|---------------------------------------------------||
|---------------------------------------------------||
|---------------------------------------------------||
|3-3-3-3-3-3-3-3-3--5-5-5-5-5-5-5-5-5-5-5-5-5-5-5-5-||
|3-3-3-3-3-3-3-3-3--5-5-5-5-5-5-5-5-5-5-5-5-5-5-5-5-||
|3-3-3-3-3-3-3-3-3--5-5-5-5-5-5-5-5-5-5-5-5-5-5-5-5-||

Verse:
 2x
|----------------------|------------------|---------------|----------------||
|----------------------|------------------|---------------|----------------||
|---5--5---5--7--7---7-|--8--8---8--------|---------------|----------------||
|---5--5---5--7--7---7-|--8--8---8-5-5--5-|-6-6--6-6-6--6-|-5-5--5-5-5--5--||
|---3--3---3--5--5---5-|--6--6---6-5-5--5-|-6-6--6-6-6--6-|-5-5--5-5-5--5--||
|----------------------|-----------5-5--5-|-6-6--6-6-6--6-|-5-5--5-5-5--5--||

  PM----|    PM----|      PM----|     PM------|
|-----------------------|----------------------------|
|-----------------------|----------------------------|
|---------5----------7--|---------8--------------12--|
|---------5----------7--|---------8--------------12--|
|-3-3-3-3-3--5-5-5-5-5--|-6-6-6-6-6--10-10-10-10-10--|
|-----------------------|----------------------------|

|---------------|-----------------|
|---------------|-----------------|
|---------------|-----------------|
|-6-6--6-6-6--6-|-5-5--5-5-5---5--|
|-6-6--6-6-6--6-|-5-5--5-5-5---5--|
|-6-6--6-6-6--6-|-5-5--5-5-5---5--|

|----------------------|------------------|---------------|----------------|
|----------------------|------------------|---------------|----------------|
|---5--5---5--7--7---7-|--8--8---8--------|---------------|----------------|
|---5--5---5--7--7---7-|--8--8---8-5-5--5-|-6-6--6-6-6--6-|-5-5--5-5-5--5--|
|---3--3---3--5--5---5-|--6--6---6-5-5--5-|-6-6--6-6-6--6-|-5-5--5-5-5--5--|
|----------------------|-----------5-5--5-|-6-6--6-6-6--6-|-5-5--5-5-5--5--|

|---------------------|----------------|
|---------------------|----------------|
|---------------------|----------------|
|--1--1---1--1--1---1-|----------5~----|
|--1--1---1--1--1---1-|-0-0-0-0--------|
|--1--1---1--1--1---1-|-0-0-0-0--------|

Pre chorus:
 2x
|------------|-----------------|--------------|-----------------------|
|------------|-----------------|--------------|-----------------------|
|-5---7---8--|12/13------(13)\-|-8---10---12--|-12s15-(15)----(15)\---|
|-x---x---x--|---x-------------|-x----x----x--|--x--------------------|
|-3---5---6--|10/11------(11)\-|-6----8---10--|-10s13-(13)----(13)\---|
|------------|-----------------|--------------|-----------------------|

Chorus: 
 2x
|----------------------|--------------------------|
|----------------------|--------------------------|
|--5------5------5-----|--------------------------|
|--5------5------5-----|-----6--------6----6-(6)\-| 
|--3-3-3--3-3-3--3-----|-----6--------6----6-(6)\-|
|------------------0-0-|--0--6---6--6-6-6--6-(6)\-|

|--------------------------|--------------------||
|--------------------------|--------------------||
|--------------------------|----3-----3----3----||
|------------1---------1---|----3-----3----3----||
|------------1---------1---|--1-1-1-1-1-1--1----||
|--1-1-1--1--1---1--1--1-1-|--------------------||

|-------------|------------|------------|---------|
|-------------|------------|------------|---------|
|-5------(5)S=|==9---------|-(9)--------|--(9)----|
|-x-----------|--x---------|------------|---------|
|-3------(3)S=|==7---------|-(7)--------|--(7)----|
|-------------|------------|------------|---------|

Verse:
 2x
|-------------------|-----------------------|
|-------------------|-----------------------|
|----5---------5----|-----------------5--5--|
|----5---------5----|-----------------5--5--|
|--3-3-3-3-3-3-3----|-3-3-3-3-3-3-3-3-3--3--|
|-------------------|-----------------------|

|-------------------|----------------||
|-------------------|----------------||
|---5---------5--5--|----------------||
|---5---------5--5--|----6-----3-----||
|-3-3-3-3-3-3-3--3--|----6-----3-----||
|-------------------|-6--6--3--3-----||

 PM-----------------------------------------------------------------|
|---------------------------------|----------------------------------|
|---------------------------------|----------------------------------|
|---------------------------------|----------------------------------|
|---------------------------------|----------------------------------|
|-3-3-3-3-3-3-3-3-3-3-3-3-3-3-3-3-|-3-3-3-3-3-3-3-3-3-3-3-3-3-3-3-3--|
|---------------------------------|----------------------------------|

PM--------------------------------| PM    PM
|---------------------------------|-------------|
|---------------------------------|-------------|
|---------------------------------|-------------|
|---------------------------------|----6-----3--|
|-3-3-3-3-3-3-3-3-3-3-3-3-3-3-3-3-|----6-----3--|
|---------------------------------|-6--6--3--3--|
                                    .     .
|-------------------|-----------------------|
|-------------------|-----------------------|
|----5---------5----|-----------------5--5--|
|----5---------5----|-----------------5--5--|
|--3-3-3-3-3-3-3----|-3-3-3-3-3-3-3-3-3--3--|
|-------------------|-----------------------|

|-------------------|----------------|
|-------------------|----------------|
|---5---------5--5--|----------------|
|---5---------5--5--|----6-----3-----|
|-3-3-3-3-3-3-3--3--|----6-----3-----|
|-------------------|-6--6--3--3-----|

|-------------------|---------------------|
|-------------------|---------------------|
|-------------------|-----------7-(7)s10--|
|----------8-6------|-10-8-6--------------|
|-8h10p8p6-----10-8-|--------10-----------|
|-------------------|---------------------|

Bridge:
 2x
|--------------------------|---------------------|
|--------------------------|---------------------|
|--------------------------|---------------------|
|--10-10-10-10-(10)-10-10--|-8-8-8-8-(8)-8-8-(8)S|
|--10-10-10-10-(10)-10-10--|-8-8-8-8-(8)-8-8-(8)S|
|--10-10-10-10-(10)-10-10--|-8-8-8-8-(8)-8-8-(8)S|

|------------------|-------------------||
|------------------|-------------------||
|------------------|-------------------||
|-6-6-6-6-(6)-6-6--|-8-8-8-8-(8)-8-8---||
|-6-6-6-6-(6)-6-6--|-8-8-8-8-(8)-8-8---||
|-6-6-6-6-(6)-6-6--|-8-8-8-8-(8)-8-8---||
 
 Then play this 2x 
|-------------------------|---------------------|
|-/4-------------------4--|-3-------------3-----|
|-----------5-------------|-------3-------------|
|-------------------------|---------------------|
|-------------------------|---------------------|
|-------------------------|---------------------|

|------------------------|---------------------|
|-/4-------------6-(6)b8-|-(6)---4----3--------|
|--------5---------------|-----------------3---|
|------------------------|---------------------|
|------------------------|---------------------|
|------------------------|---------------------|

|-------------------------|---------------------|
|-/4-------------------4--|-3-------------3-----|
|-----------5-------------|-------3-------------|
|-------------------------|---------------------|
|-------------------------|---------------------|
|-------------------------|---------------------|

|-------------------|---------------/6---||
|----------------4--|-------3------------||
|--------5----------|-3------------------||
|-/6----------------|--------------------||
|-------------------|--------------------||
|-------------------|--------------------||

|--/8^---------------------|--(8)----------------------|
|--------------------------|---------------------------|
|--------------------------|---------------------------|
|--------------------------|---------------------------|
|--------------------------|---------------------------|
|--------------------------|---------------------------|

Chorus:
 4x
|-------------------------|---------------------------|
|-------------------------|---------------------------|
|-5-5-5-5-5-5-5-5-5-5-5-5-|-5-5-5-5-5-5-5-5-5-5-5-5-5-|
|-5-5-5-5-5-5-5-5-5-5-5-5-|-5-5-5-5-5-5-5-5-5-5-5-5-5-|
|-3-3-3-3-3-3-3-3-3-3-3-3-|-3-3-3-3-3-3-3-3-3-3-3-3-3-|
|-------------------------|---------------------------|

|-------------------------|-------------------------|
|-------------------------|-------------------------|
|-3-3-3-3-3-3-3-3-3-3-3-3-|-3-3-3-3-3-3-3-3-3-3-3-3-|
|-3-3-3-3-3-3-3-3-3-3-3-3-|-3-3-3-3-3-3-3-3-3-3-3-3-|
|-1-1-1-1-1-1-1-1-1-1-1-1-|-1-1-1-1-1-1-1-1-1-1-1-1-|
|-------------------------|-------------------------|

|-----------------|-----------------|
|-----------------|-----------------|
|-----------------|-----------------|
|-----------------|-3-3-3-3-3-3-3-3-|
|-1-1-1-1-1-1-1-1-|-3-3-3-3-3-3-3-3-|
|-1-1-1-1-1-1-1-1-|-1-1-1-1-1-1-1-1-|
|-1-1-1-1-1-1-1-1-|-----------------|

|-------------------------|
|-------------------------|
|-5-5-5-5-5-5-5-5-5-5-5-5-|
|-5-5-5-5-5-5-5-5-5-5-5-5-|
|-3-3-3-3-3-3-3-3-3-3-3-3-|
|-------------------------|

Pre-interlude
|-----------|-----------------|----------|--------|
|-----------|-----------------|----------|--------|
|-5---------|-(5)-------------|-3--------|-(3)----|
|-5---------|-(5)-------------|-3--------|-(3)----|
|-3---------|-(3)-------------|-1--------|-(1)----|
|-----------|-----------------|----------|--------|

|----------|-------------|------------|-------------|
|----------|-------------|------------|-------------|
|----------|-------------|------------|-------------|
|-3--------|-(3)------5--|-6----------|--8----------|
|-3--------|-(3)------5--|-6----------|--8----------|
|-3--------|-(3)------5--|-6----------|--8----------|

Interlude:
 4x
|------------------------|-------------|-----------|----------------||
|------------------------|-------------|-----------|----------------||
|------------------------|-------------|-----------|----------------||
|-10-10-(10)--(10)\---0--|-1--0--1--3--|-5-5-------|-8-8----9--9----||
|-10-10-(10)--(10)\---0--|-1--0--1--3--|-5-5-------|-8-8---10-10----||
|-10-10-(10)--(10)\---0--|-1--0--1--3--|-5-5-------|-8-8----9--9----||

Brakdown:
 2x
|-----------------------|----------------|
|-----------------------|----------------|
|-----------------------|----------------|
|--0--------0--------0--|---1---0--1--0--|
|--0--------0--------0--|---1---0--1--0--|
|--0--------0--------0--|---1---0--1--0--|

           PM--------------------------|
|------------------|---------------------|
|------------------|---------------------|
|------------------|---------------------|
|---0---0----------|---------------------|
|---0---0--0-0-0-0-|---0---0-0-0-0-0-0-0-|
|---0---0--0-0-0-0-|---0---0-0-0-0-0-0-0-|

|-----------------------|----------------|
|-----------------------|----------------|
|-----------------------|----------------|
|--0--------0--------0--|---1---0--1--0--|
|--0--------0--------0--|---1---0--1--0--|
|--0--------0--------0--|---1---0--1--0--|

           PM---------------------------|
|------------------|---------------------||
|------------------|---------------------||
|------------------|---------------------||
|---0---0----------|---------------------||
|---0---0--0-0-0-0-|---3---3-3-3-2-2-2-2-||
|---0---0--0-0-0-0-|---3---3-3-3-2-2-2-2-||

|-----------|------------------|------------|--------|
|-----------|------------------|------------|--------|
|-----------|------------------|------------|--------|
|--0--------|---0----2---3--7--|---8--------|---9----|
|--0--------|---0----2---3--7--|---8--------|--10----|
|--0--------|---0----2---3--7--|---8--------|---9----|

Re-Pre-verse:
 note: first part of Re-Pre-verse is slower than pre-verse
 3x
|----------------------1---1--|---3----3-1----------|
|--4-----------------4--------|------------4---3----|
|-------------3----------3----|------3--------------|
|-----------------------------|---------------------|
|-----------------------------|---------------------|
|-----------------------------|---------------------|

|--------1s3-1------|------/6-4-3------|
|------4-------4-3--|----4--------6----|
|---5---------------|--5---------------|
|-------------------|------------------|
|-------------------|------------------|
|-------------------|------------------|

 Then: 
 1x
|----------------------1---1--|---3----3-1----------|
|--4-----------------4--------|------------4---3----|
|-------------3----------3----|------3--------------|
|-----------------------------|---------------------|
|-----------------------------|---------------------|
|-----------------------------|---------------------|

|--------1s3-1------|------/6-4-3------|
|------4-------4-3--|----4--------6----|
|---5---------------|--5---------------|
|-------------------|------------------|
|-------------------|------------------|
|-------------------|------------------|

|----------|---------------|------------|
|-8--------|-(8)-------(8)s|==4---------|
|----------|---------------|------------|
|----------|---------------|------------|
|----------|---------------|------------|
|----------|---------------|------------|

Chorus:
 2x
|-------------------------|---------------------------|
|-------------------------|---------------------------|
|-5-5-5-5-5-5-5-5-5-5-5-5-|-5-5-5-5-5-5-5-5-5-5-5-5-5-|
|-5-5-5-5-5-5-5-5-5-5-5-5-|-5-5-5-5-5-5-5-5-5-5-5-5-5-|
|-3-3-3-3-3-3-3-3-3-3-3-3-|-3-3-3-3-3-3-3-3-3-3-3-3-3-|
|-------------------------|---------------------------|

|-------------------------|-------------------------|
|-------------------------|-------------------------|
|-3-3-3-3-3-3-3-3-3-3-3-3-|-3-3-3-3-3-3-3-3-3-3-3-3-|
|-3-3-3-3-3-3-3-3-3-3-3-3-|-3-3-3-3-3-3-3-3-3-3-3-3-|
|-1-1-1-1-1-1-1-1-1-1-1-1-|-1-1-1-1-1-1-1-1-1-1-1-1-|
|-------------------------|-------------------------|

|-----------------|-----------------|
|-----------------|-----------------|
|-----------------|-----------------|
|-----------------|-3-3-3-3-3-3-3-3-|
|-1-1-1-1-1-1-1-1-|-3-3-3-3-3-3-3-3-|
|-1-1-1-1-1-1-1-1-|-1-1-1-1-1-1-1-1-|
|-1-1-1-1-1-1-1-1-|-----------------|

|-------------------------|
|-------------------------|
|-5-5-5-5-5-5-5-5-5-5-5-5-|
|-5-5-5-5-5-5-5-5-5-5-5-5-|
|-3-3-3-3-3-3-3-3-3-3-3-3-|
|-------------------------|
 
 Then:
|-------------------------|-----------------------|
|-/4-------------------4--|--3--------------3-----|
|-----------5-------------|--------3--------------|
|-------------------------|-----------------------|
|-------------------------|-----------------------|
|-------------------------|-----------------------|

|-------------------------|---------------------|
|-/4-------------6-(6)b8--|-(6)---4----3--------|
|--------5----------------|-----------------3---|
|-------------------------|---------------------|
|-------------------------|---------------------|
|-------------------------|---------------------|

|-------------------------|-----------------------|
|-/4-------------------4--|--3--------------3-----|
|-----------5-------------|--------3--------------|
|-------------------------|-----------------------|
|-------------------------|-----------------------|
|-------------------------|-----------------------|

|-------------------|---------------/6---|
|----------------4--|-------3------------|
|--------5----------|-3------------------|
|-/6----------------|--------------------|
|-------------------|--------------------|
|-------------------|--------------------|

|-------------------------|-----------------------|
|-/4-------------------4--|--3--------------3-----|
|-----------5-------------|--------3--------------|
|-------------------------|-----------------------|
|-------------------------|-----------------------|
|-------------------------|-----------------------|

|-------------------------|---------------------|
|-/4-------------6-(6)b8--|-(6)---4----3--------|
|--------5----------------|-----------------3---|
|-------------------------|---------------------|
|-------------------------|---------------------|
|-------------------------|---------------------|

|-------------------------|-----------------------|
|-/4-------------------4--|--3--------------3-----|
|-----------5-------------|--------3--------------|
|-------------------------|-----------------------|
|-------------------------|-----------------------|
|-------------------------|-----------------------|

|------------------------|-------------------------|
|------------------------|--8-----8-9-11-----9-11--|
|----------7--8---7-8-10-|----10----------12-------|
|-10-8-10----------------|-------------------------|
|------------------------|-------------------------|
|------------------------|-------------------------|

Chorus:
 4x
|-------------------------|---------------------------|
|-------------------------|---------------------------|
|-5-5-5-5-5-5-5-5-5-5-5-5-|-5-5-5-5-5-5-5-5-5-5-5-5-5-|
|-5-5-5-5-5-5-5-5-5-5-5-5-|-5-5-5-5-5-5-5-5-5-5-5-5-5-|
|-3-3-3-3-3-3-3-3-3-3-3-3-|-3-3-3-3-3-3-3-3-3-3-3-3-3-|
|-------------------------|---------------------------|

|-------------------------|-------------------------|
|-------------------------|-------------------------|
|-3-3-3-3-3-3-3-3-3-3-3-3-|-3-3-3-3-3-3-3-3-3-3-3-3-|
|-3-3-3-3-3-3-3-3-3-3-3-3-|-3-3-3-3-3-3-3-3-3-3-3-3-|
|-1-1-1-1-1-1-1-1-1-1-1-1-|-1-1-1-1-1-1-1-1-1-1-1-1-|
|-------------------------|-------------------------|

|-----------------|-----------------|
|-----------------|-----------------|
|-----------------|-----------------|
|-----------------|-3-3-3-3-3-3-3-3-|
|-1-1-1-1-1-1-1-1-|-3-3-3-3-3-3-3-3-|
|-1-1-1-1-1-1-1-1-|-1-1-1-1-1-1-1-1-|
|-1-1-1-1-1-1-1-1-|-----------------|

|-------------------------|
|-------------------------|
|-5-5-5-5-5-5-5-5-5-5-5-5-|
|-5-5-5-5-5-5-5-5-5-5-5-5-|
|-3-3-3-3-3-3-3-3-3-3-3-3-|
|-------------------------|

Solo:

|-/8---------------------|------------------------8-|
|---------8----------(8)-|-(8)----------------------|
|------------------------|------------0--8--7--8----|
|------------------------|--------------------------|
|------------------------|--------------------------|
|------------------------|--------------------------|

|-8s10------------------|-------------------11-13--|
|------11---------------|----------------11--------|
|---------10-(10)-------|-(10)-------/10-----------|
|-----------------------|--------------------------|
|-----------------------|--------------------------|
|-----------------------|--------------------------|

|-13b15--(13)p11-(11)--------|------------------------------|
|-----------------------13---|-13h15--13-11-(11)---11s13----|
|----------------------------|---------------------------12-|
|----------------------------|------------------------------|
|----------------------------|------------------------------|
|----------------------------|------------------------------|

|---------------------8---------|----------------------------------|
|------------------------8------|----------------------------------|
|-(12)--------(12)---------8--7-|-(7)-10--7------------------------|
|-------------------------------|-----------10--8--------8--9-10---|
|-------------------------------|----------------------------------|
|-------------------------------|----------------------------------|

|--8--------------------|-------------------------8-|
|---------8-------------|---------------------------|
|------------------8----|-(8)--7-(7)--0--8--7--8----|
|-----------------------|---------------------------|
|-----------------------|---------------------------|
|-----------------------|---------------------------|

|-8s10------------------|-----------------------10-11---13--|
|------11---------------|---------------11---13-------------|
|---------10-(10)-------|-(10)-------10---------------------|
|-----------------------|-----------------------------------|
|-----------------------|-----------------------------------|
|-----------------------|-----------------------------------|

|-15--13----------------|-/18--16-15-(15)---------|
|--------16-(16)---13---|-------------------16-13-|
|-----------------------|-------------------------|
|-----------------------|-------------------------|
|-----------------------|-------------------------|
|-----------------------|-------------------------|

|-------------------------------|-------------------------------------------|
|-(13)-------------(13)b15-(13)-|-(13)b15-(13)-(13)b16----------(13)p11-----|
|-------------------------------|---------------------------------------12--|
|-------------------------------|-------------------------------------------|
|-------------------------------|-------------------------------------------|
|-------------------------------|-------------------------------------------|

Guitar solo/outro:

|--------------------------------------------------|
|-----------------------------16-18-16----------16-|
|-15b17==(15)-(15)r--17----17----------17----17----|
|-----------------------17----------------17-------|
|--------------------------------------------------|
|--------------------------------------------------|

|-------------------------------------------|
|-20-16-------------------------------16----|
|-------15-------------15-------------------|
|----------17-------17----17-15-------------|
|-------------15-18-------------18-15-------|
|-------------------------------------------|

|----------------------------------|----------------------------------------|
|-------------------------8-9-11-9-|---------------15-18-15-16-15-----------|
|-8-7-8-7-0-0-7-8-10-8-0-0---------|-10-0----15-17----------------15-0------|
|----------------------------------|------17---------------------------17---|
|----------------------------------|----------------------------------------|
|----------------------------------|----------------------------------------|

|-18-16-15---------------------------------------|
|----------18-16-15-18-16-15---------------------|
|----------------------------17-15-0-17-15-------|
|------------------------------------------18-17-|
|------------------------------------------------|
|------------------------------------------------|

|--------------------------------------------------|
|--------------------------------------------------|
|-------------------------19-17-15-----------------|
|-15----15-------------------------18-17-15--------|
|----18----18-17-15-17-18-------------------18-17--|
|--------------------------------------------------|

|--------------------------------|----------------------------|
|--------------------------------|-------------15s16----------|
|-----------------------------15-|-------------------------17-|
|--------------------------------|-17----18-------------------|
|-15----(15)\-/15-17----18-------|----------------------------|
|--------------------------------|----------------------------|

|-15-20-15-20-15----------15-20-15-20-15----------|
|-------------------------------------------------|
|----------------17-17-17----------------17-17-17-|
|-------------------------------------------------|
|-------------------------------------------------|
|-------------------------------------------------|

|-22-22-------------22-22-------------22-22-------|
|-------------------------------------------------|
|-------19-------19-------19-------19-------19----|
|----------20-20-------------20-20-------------20-|
|-------------------------------------------------|
|-------------------------------------------------|

|-------22-22-------------22-22-------22-22--------|
|--------------------------------------------------|
|----19-------19-------19-------19----------19-----|
|-20-------------20-20-------------20----------20--|
|--------------------------------------------------|
|--------------------------------------------------|

|-21b23----------------------------15-|
|-------------------------15-16-15----|
|----------------------15-------------|
|----------------15-17----------------|
|----------17-18----------------------|
|-------------------------------------|

|----------15-18-15-------------------------------|
|-16-15-------------16-15------------------15-16--|
|-------17----------------------0-14-15-17--------|
|-------------------------15-17-------------------|
|-------------------------------------------------|
|-------------------------------------------------|

|-18h20-(20)------|-(20)----*|
|-----------------|---------*|
|-----------------|---------*|
|-----------------|---------*|
|-----------------|---------*|
|-----------------|---------*|
                                            The end of Synyster's guitar.



Guitar II - Zacky Vengeance

Intro:
 Zacky starts later. Starts at the same time just like drums.
 PM------------------------------|
|---------------------------------|
|---------------------------------|
|---------------------------------|
|---------------------------------|
|-3-3-3-3-3-3-3-3-3-3-3-3-3-3-3-3-|
|---------------------------------|

Pre-verse:
 3x
|---------------|---------------------|----------------|-----/3--------||
|-------3---3---|--4----4--3----------|-----3s4-3------|--------6-4-3--||
|-5---5---------|---------------5---3-|---5-------5-3--|---5-----------||
|---5-----5-----|-----5---------------|-6--------------|-6-------------||
|---------------|---------------------|----------------|---------------||
|---------------|---------------------|----------------|---------------||

Then
 1x
|---------------|---------------------|----------------|-----/3-------------|
|-------3---3---|--4----4--3----------|-----3s4-3------|--------6-4-3-4~~---|
|-5---5---------|---------------5---3-|---5-------5-3--|---5-------------5~~|
|---5-----5-----|-----5---------------|-6--------------|-6------------------|
|---------------|---------------------|----------------|--------------------|
|---------------|---------------------|----------------|--------------------|

Verse:
 2x
|----------------------|------------------|---------------|----------------|
|----------------------|------------------|---------------|----------------|
|--12-12--12-10-10--10-|-12-12--12-3-3--3-|-5-5--5-5-5--5-|-4-4--4-4-4--4--|
|---x--x---x--x--x---x-|--x--x---x-x-x--x-|-x-x--x-x-x--x-|-x-x--x-x-x--x--|
|--10-10--10--8--8---8-|-10-10--10-1-1--1-|-3-3--3-3-3--3-|-2-2--2-2-2--2--|
|----------------------|------------------|---------------|----------------|

  PM----|    PM----|      PM----|     PM------|
|-----------------------|----------------------------|
|-----------------------|----------------------------|
|---------5----------7--|---------8--------------12--|
|---------5----------7--|---------8--------------12--|
|-3-3-3-3-3--5-5-5-5-5--|-6-6-6-6-6--10-10-10-10-10--|
|-----------------------|----------------------------|

|---------------|-----------------|
|---------------|-----------------|
|-5-5--5-5-5--5-|-4-4--4-4-4---4--|
|-x-x--x-x-x--x-|-x-x--x-x-x---x--|
|-3-3--3-3-3--3-|-2-2--2-2-2---2--|
|---------------|-----------------|

|----------------------|------------------|---------------|----------------|
|----------------------|------------------|---------------|----------------|
|--12-12--12-10-10--10-|-12-12--12-3-3--3-|-5-5--5-5-5--5-|-4-4--4-4-4--4--|
|---x--x---x--x--x---x-|--x--x---x-x-x--x-|-x-x--x-x-x--x-|-x-x--x-x-x--x--|
|--10-10--10--8--8---8-|-10-10--10-1-1--1-|-3-3--3-3-3--3-|-2-2--2-2-2--2--|
|----------------------|------------------|---------------|----------------|

|---------------------|----------------|
|---------------------|----------------|
|-12-12--12-12-12--12-|----------------|
|--x--x---x--x--x---x-|----------5~----|
|-10-10--10-10-10--10-|-0-0-0-0--------|
|---------------------|-0-0-0-0--------|


Pre-chorus
 2x
|------------|-------------------|--------------|-----------------------|
|------------|-------------------|--------------|-----------------------|
|-5---7---8--|-12/13------(13)\--|-8---10---12--|-12s15-(15)----(15)\---|
|-x---x---x--|---x---------------|-x----x----x--|--x--------------------|
|-3---5---6--|-10/11------(11)\--|-6----8---10--|-10s13-(13)----(13)\---|
|------------|-------------------|--------------|-----------------------|

Chorus:
|----------------------|--------------------------|
|----------------------|--------------------------|
|-20-----19-----15-----|-15s17-(17)-------17S=====|
|--x------x------x-----|--x----------------xS=====|
|-18-----17-----13-----|-13s15-(15)-------15S=====|
|----------------------|--------------------------|

|--------------------------|--------------------|
|--------------------------|--------------------|
|-15-----15-15-(15)---12S==|=10-----------10S===|
|--x------x--x---------xS==|==x------------xS===|
|-13-----13-13-(13)---10S==|==8------------8S===|
|--------------------------|--------------------|

|--------------------------|--------------------|
|--------------------------|--------------------|
|-12---12-12-(12)---10S====|=8-----------8------|
|--x----x--x---------xS====|=x-----------x------|
|-10---10-10-(10)----8S====|=6-----------6------|
|--------------------------|--------------------|

|---------------------|------------------|
|---------------------|------------------|
|--8---------10-------|--7-------3-------|
|--x----------x-------|--x-------x-------|
|--6----------8-------|--5-------1-------|
|---------------------|------------------|

|-------------|------------|------------|---------||
|-------------|------------|------------|---------||
|-5-----------|-(5)--------|-12---------|-(12)----||
|-x-----------|------------|--x---------|---------||
|-3-----------|-(3)--------|-10---------|-(10)----||
|-------------|------------|------------|---------||

Verse:
 2x
    PM  PM----|        PM------------|
|-------------------|-----------------------|
|-------------------|-----------------------|
|----5---------5----|-----------------5--5--|
|----5---------5----|-----------------5--5--|
|--3-3-3-3-3-3-3----|-3-3-3-3-3-3-3-3-3--3--|
|-------------------|-----------------------|

 PM  PM----|         PM    PM
|-------------------|----------------||
|-------------------|----------------||
|---5---------5--5--|----------------||
|---5---------5--5--|----6-----3-----||
|-3-3-3-3-3-3-3--3--|----6-----3-----||
|-------------------|-6--6--3--3-----||

  PM---------------------------------------------------------------|
|---------------------------------|----------------------------------|
|---------------------------------|----------------------------------|
|---------------------------------|----------------------------------|
|---------------------------------|----------------------------------|
|-3-3-3-3-3-3-3-3-3-3-3-3-3-3-3-3-|-3-3-3-3-3-3-3-3-3-3-3-3-3-3-3-3--|
|---------------------------------|----------------------------------|

 PM--------------------------------|     PM
|---------------------------------|-------------|
|---------------------------------|-------------|
|---------------------------------|-------------|
|---------------------------------|----6-----3--|
|-3-3-3-3-3-3-3-3-3-3-3-3-3-3-3-3-|----6-----3--|
|---------------------------------|-6--6--3--3--|

  PM  PM----|        PM------------|         PM  PM----|         PM    PM
|-----------------|-----------------------|-------------------|-------------|
|-----------------|-----------------------|-------------------|-------------|
|---5--------5----|-----------------5--5--|---5---------5--5--|-------------|
|---5--------5----|-----------------5--5--|---5---------5--5--|----6-----3--|
|-3-3-3-3-3-3-3---|-3-3-3-3-3-3-3-3-3--3--|-3-3-3-3-3-3-3--3--|----6-----3--|
|-----------------|-----------------------|-------------------|-6--6--3--3--|

|-------------------|---------------------|
|-------------------|---------------------|
|-------------------|--3--------4-(4)s=7--|
|----------5-3------|----6-5--3-----------|
|-5h=6p5p3------6-5-|---------------------|
|-------------------|---------------------|

Bridge:
 4x
|--------------------------|---------------------|
|--------------------------|---------------------|
|--------------------------|---------------------|
|--10-10-10-10-(10)-10-10--|-8-8-8-8-(8)-8-8-(8)S|
|--10-10-10-10-(10)-10-10--|-8-8-8-8-(8)-8-8-(8)S|
|--10-10-10-10-(10)-10-10--|-8-8-8-8-(8)-8-8-(8)S|

|------------------|-------------------||
|------------------|-------------------||
|------------------|-------------------||
|-6-6-6-6-(6)-6-6--|-8-8-8-8-(8)-8-8---||
|-6-6-6-6-(6)-6-6--|-8-8-8-8-(8)-8-8---||
|-6-6-6-6-(6)-6-6--|-8-8-8-8-(8)-8-8---||
 
 Then:
|-------------------------|-----------------------|
|-/8-------------------8--|-----------------------|
|-----------8-------------|-10-----7-------10-----|
|-------------------------|-----------------------|
|-------------------------|-----------------------|
|-------------------------|-----------------------|

|-------------------------|---------------------|
|-/8-------------9-(9)b11-|-(9)---8-------------|
|--------8----------------|-----------10----7---|
|-------------------------|---------------------|
|-------------------------|---------------------|
|-------------------------|---------------------|

|-------------------------|-----------------------|
|-/8-------------------8--|-----------------------|
|-----------8-------------|-10-----7-------10-----|
|-------------------------|-----------------------|
|-------------------------|-----------------------|
|-------------------------|-----------------------|

|--------------------|----------------10---|
|-----------------8--|--------8------------|
|---------8----------|-10------------------|
|-/10----------------|---------------------|
|--------------------|---------------------|
|--------------------|---------------------|

|-/11~---------------------|-(11)----------------------|
|--------------------------|---------------------------|
|--------------------------|---------------------------|
|--------------------------|---------------------------|
|--------------------------|---------------------------|
|--------------------------|---------------------------|

Chorus:
 4x
|-------------------------|---------------------------|
|-------------------------|---------------------------|
|-5-5-5-5-5-5-5-5-5-5-5-5-|-5-5-5-5-5-5-5-5-5-5-5-5-5-|
|-5-5-5-5-5-5-5-5-5-5-5-5-|-5-5-5-5-5-5-5-5-5-5-5-5-5-|
|-3-3-3-3-3-3-3-3-3-3-3-3-|-3-3-3-3-3-3-3-3-3-3-3-3-3-|
|-------------------------|---------------------------|

|-------------------------|-------------------------|
|-------------------------|-------------------------|
|-3-3-3-3-3-3-3-3-3-3-3-3-|-3-3-3-3-3-3-3-3-3-3-3-3-|
|-3-3-3-3-3-3-3-3-3-3-3-3-|-3-3-3-3-3-3-3-3-3-3-3-3-|
|-1-1-1-1-1-1-1-1-1-1-1-1-|-1-1-1-1-1-1-1-1-1-1-1-1-|
|-------------------------|-------------------------|

|-----------------|-----------------|
|-----------------|-----------------|
|-----------------|-----------------|
|-----------------|-3-3-3-3-3-3-3-3-|
|-1-1-1-1-1-1-1-1-|-3-3-3-3-3-3-3-3-|
|-1-1-1-1-1-1-1-1-|-1-1-1-1-1-1-1-1-|
|-1-1-1-1-1-1-1-1-|-----------------|

|-------------------------|
|-------------------------|
|-5-5-5-5-5-5-5-5-5-5-5-5-|
|-5-5-5-5-5-5-5-5-5-5-5-5-|
|-3-3-3-3-3-3-3-3-3-3-3-3-|
|-------------------------|

Pre-interlude:
|-----------|-----------------|----------|--------|
|-----------|-----------------|----------|--------|
|--5--------|--(5)--(5)S=8----|-7--------|-(7)----|
|--x--------|------------x----|-x--------|--------|
|--3--------|--(3)--(3)S=6----|-5--------|-(5)----|
|-----------|-----------------|----------|--------|

|----------|-------------|------------|-------------||
|----------|-------------|------------|-------------||
|-5--------|-(5)------7--|-8------12--|-10----15----||
|-x--------|----------x--|-x-------x--|--x-----x----||
|-3--------|-(3)------5--|-6------10--|--8----13----||
|----------|-------------|------------|-------------||

Interlude:
 4x
|------------------------|-------------|-----------|----------------|
|------------------------|-------------|-----------|----------------|
|------------------------|-------------|-----------|----------------|
|-10-10-(10)--(10)\---0--|-1--0--1--3--|-5-5-------|-8-8----9--9----|
|-10-10-(10)--(10)\---0--|-1--0--1--3--|-5-5-------|-8-8---10-10----|
|-10-10-(10)--(10)\---0--|-1--0--1--3--|-5-5-------|-8-8----9--9----|

Breakdown:
 2x
|-----------------------|----------------|
|-----------------------|----------------|
|-----------------------|----------------|
|--0--------0--------0--|---1---0--1--0--|
|--0--------0--------0--|---1---0--1--0--|
|--0--------0--------0--|---1---0--1--0--|

           PM--------------------------|
|------------------|---------------------|
|------------------|---------------------|
|------------------|---------------------|
|---0---0----------|---------------------|
|---0---0--0-0-0-0-|---0---0-0-0-0-0-0-0-|
|---0---0--0-0-0-0-|---0---0-0-0-0-0-0-0-|

|-----------------------|----------------|
|-----------------------|----------------|
|-----------------------|----------------|
|--0--------0--------0--|---1---0--1--0--|
|--0--------0--------0--|---1---0--1--0--|
|--0--------0--------0--|---1---0--1--0--|

           PM---------------------------|
|------------------|---------------------||
|------------------|---------------------||
|------------------|---------------------||
|---0---0----------|---------------------||
|---0---0--0-0-0-0-|---3---3-3-3-2-2-2-2-||
|---0---0--0-0-0-0-|---3---3-3-3-2-2-2-2-||

|-----------|------------------|------------|--------|
|-----------|------------------|------------|--------|
|-19--------|--19---17--14--7--|--15--------|--16----|
|--x--------|---x----x---x--x--|---x--------|---x----|
|-17--------|--17---15--12--5--|--13--------|--14----|
|-----------|------------------|------------|--------|

Re-Pre-verse:

note: this part is slower than pre-verse
 2x
|-----------------------------|---------------------|
|----------------------3---3--|---4----4-3----------|
|--5-----------------5--------|------------5---3----|
|-------------5----------5----|------5--------------|
|-----------------------------|---------------------|
|-----------------------------|---------------------|

|-------------------|------/3----------|
|--------3s4-3------|---------6-4-3----|
|------5-------5-3--|----5-------------|
|---6---------------|--6---------------|
|-------------------|------------------|
|-------------------|------------------|


Then Zacky's palm muting:
 2x
  PM----------------------------------------------------------------|
|----------------------------------|---------------------------------|
|----------------------------------|---------------------------------|
|--5-5-5-5-5-5-5-5-5-5-5-5-5-5-5-5-|-5-5-5-5-5-5-5-5-5-5-5-5-5-5-5-5-|
|--5-5-5-5-5-5-5-5-5-5-5-5-5-5-5-5-|-5-5-5-5-5-5-5-5-5-5-5-5-5-5-5-5-|
|--3-3-3-3-3-3-3-3-3-3-3-3-3-3-3-3-|-3-3-3-3-3-3-3-3-3-3-3-3-3-3-3-3-|
|----------------------------------|---------------------------------|

 PM-----------------------------------------------------------------|
|---------------------------------|------------------------------------||
|---------------------------------|------------------------------------||
|---------------------------------|------------------------------------||
|-6-6-6-6-6-6-6-6-6-6-6-6-6-6-6-6-|-3-3-3-3-3-3--3-3-5-5-5-5-5-5-5-5---||
|-6-6-6-6-6-6-6-6-6-6-6-6-6-6-6-6-|-3-3-3-3-3-3--3-3-5-5-5-5-5-5-5-5---||
|-6-6-6-6-6-6-6-6-6-6-6-6-6-6-6-6-|-3-3-3-3-3-3--3-3-5-5-5-5-5-5-5-5---||

 Then:
|-------|
|-------|
|-5~----|
|-5~-5~-|
|-3~-5~-|
|----5~-|

Chorus:
 2x
|-------------------------|---------------------------|
|-------------------------|---------------------------|
|-5-5-5-5-5-5-5-5-5-5-5-5-|-5-5-5-5-5-5-5-5-5-5-5-5-5-|
|-5-5-5-5-5-5-5-5-5-5-5-5-|-5-5-5-5-5-5-5-5-5-5-5-5-5-|
|-3-3-3-3-3-3-3-3-3-3-3-3-|-3-3-3-3-3-3-3-3-3-3-3-3-3-|
|-------------------------|---------------------------|

|-------------------------|-------------------------|
|-------------------------|-------------------------|
|-3-3-3-3-3-3-3-3-3-3-3-3-|-3-3-3-3-3-3-3-3-3-3-3-3-|
|-3-3-3-3-3-3-3-3-3-3-3-3-|-3-3-3-3-3-3-3-3-3-3-3-3-|
|-1-1-1-1-1-1-1-1-1-1-1-1-|-1-1-1-1-1-1-1-1-1-1-1-1-|
|-------------------------|-------------------------|

|-----------------|-----------------|
|-----------------|-----------------|
|-----------------|-----------------|
|-----------------|-3-3-3-3-3-3-3-3-|
|-1-1-1-1-1-1-1-1-|-3-3-3-3-3-3-3-3-|
|-1-1-1-1-1-1-1-1-|-1-1-1-1-1-1-1-1-|
|-1-1-1-1-1-1-1-1-|-----------------|

|-------------------------|
|-------------------------|
|-5-5-5-5-5-5-5-5-5-5-5-5-|
|-5-5-5-5-5-5-5-5-5-5-5-5-|
|-3-3-3-3-3-3-3-3-3-3-3-3-|
|-------------------------|
 
 Then:
|-------------------------|-----------------------|
|-/8-------------------8--|-----------------------|
|-----------8-------------|-10-----7-------10-----|
|-------------------------|-----------------------|
|-------------------------|-----------------------|
|-------------------------|-----------------------|

|-------------------------|---------------------|
|-/8-------------9-(9)b11-|-(9)---8-------------|
|--------8----------------|-----------10----7---|
|-------------------------|---------------------|
|-------------------------|---------------------|
|-------------------------|---------------------|

|-------------------------|-----------------------|
|-/8-------------------8--|-----------------------|
|-----------8-------------|-10-----7-------10-----|
|-------------------------|-----------------------|
|-------------------------|-----------------------|
|-------------------------|-----------------------|


|--------------------|----------------10---|
|-----------------8--|--------8------------|
|---------8----------|-10------------------|
|-/10----------------|---------------------|
|--------------------|---------------------|
|--------------------|---------------------|

|-------------------------|-----------------------|
|-/8-------------------8--|-----------------------|
|-----------8-------------|-10-----7-------10-----|
|-------------------------|-----------------------|
|-------------------------|-----------------------|
|-------------------------|-----------------------|

|-------------------------|---------------------|
|-/8-------------9-(9)b11-|-(9)---8-------------|
|--------8----------------|-----------10----7---|
|-------------------------|---------------------|
|-------------------------|---------------------|
|-------------------------|---------------------|

|-------------------------|-----------------------|
|-/8-------------------8--|-----------------------|
|-----------8-------------|-10-----7-------10-----|
|-------------------------|-----------------------|
|-------------------------|-----------------------|
|-------------------------|-----------------------|


|------------------------|----------8-10-----8-10--|
|-------------8-----8--9-|-11--9-11-------11-------|
|--8-7--8-10-----10------|-------------------------|
|------------------------|-------------------------|
|------------------------|-------------------------|
|------------------------|-------------------------|

Chorus:
 4x
|-------------------------|---------------------------|
|-------------------------|---------------------------|
|-5-5-5-5-5-5-5-5-5-5-5-5-|-5-5-5-5-5-5-5-5-5-5-5-5-5-|
|-5-5-5-5-5-5-5-5-5-5-5-5-|-5-5-5-5-5-5-5-5-5-5-5-5-5-|
|-3-3-3-3-3-3-3-3-3-3-3-3-|-3-3-3-3-3-3-3-3-3-3-3-3-3-|
|-------------------------|---------------------------|

|-------------------------|-------------------------|
|-------------------------|-------------------------|
|-3-3-3-3-3-3-3-3-3-3-3-3-|-3-3-3-3-3-3-3-3-3-3-3-3-|
|-3-3-3-3-3-3-3-3-3-3-3-3-|-3-3-3-3-3-3-3-3-3-3-3-3-|
|-1-1-1-1-1-1-1-1-1-1-1-1-|-1-1-1-1-1-1-1-1-1-1-1-1-|
|-------------------------|-------------------------|

|-----------------|-----------------|
|-----------------|-----------------|
|-----------------|-----------------|
|-----------------|-3-3-3-3-3-3-3-3-|
|-1-1-1-1-1-1-1-1-|-3-3-3-3-3-3-3-3-|
|-1-1-1-1-1-1-1-1-|-1-1-1-1-1-1-1-1-|
|-1-1-1-1-1-1-1-1-|-----------------|

|-------------------------|
|-------------------------|
|-5-5-5-5-5-5-5-5-5-5-5-5-|
|-5-5-5-5-5-5-5-5-5-5-5-5-|
|-3-3-3-3-3-3-3-3-3-3-3-3-|
|-------------------------|

Solo:
 2x    
    PM--------------------|
|--------------------------|
|--------------------------|
|-5--5-5-5-5-5-5-5-5-5-5-5-|
|-5--5-5-5-5-5-5-5-5-5-5-5-|
|-3--3-3-3-3-3-3-3-3-3-3-3-|
|--------------------------|

   PM-------------|      PM-------------|
|------------------|  |------------------|
|------------------|  |------------------|
|-3--3-3-3-3-3-3-3-|  |------------------|
|-3--3-3-3-3-3-3-3-|  |-1--1-1-1-1-1-1-1-|
|-1--1-1-1-1-1-1-1-|  |-1--1-1-1-1-1-1-1-|
|------------------|  |-1--1-1-1-1-1-1-1-|   

   PM--------------|     PM---------------|
|-------------------| |--------------------||
|-------------------| |--------------------||
|-3---3-3-3-3-3-3-3-| |-5--5-5-5-5-5-5-5-5-||
|-3---3-3-3-3-3-3-3-| |-5--5-5-5-5-5-5-5-5-||
|-1---1-1-1-1-1-1-1-| |-3--3-3-3-3-3-3-3-3-||
|-------------------| |--------------------||

 Then:
|-------------------------|
|-------------------------|
|-5-5-5-5-5-5-5-5-5-5-5-5-|
|-5-5-5-5-5-5-5-5-5-5-5-5-|
|-3-3-3-3-3-3-3-3-3-3-3-3-|
|-------------------------|
  
|------------------|  |------------------|
|------------------|  |------------------|
|-3--3-3-3-3-3-3-3-|  |------------------|
|-3--3-3-3-3-3-3-3-|  |-1--1-1-1-1-1-1-1-|
|-1--1-1-1-1-1-1-1-|  |-1--1-1-1-1-1-1-1-|
|------------------|  |-1--1-1-1-1-1-1-1-|   

|-------------------| |--------------------|
|-------------------| |--------------------|
|-3---3-3-3-3-3-3-3-| |-5--5-5-5-5-5-5-5-5-|
|-3---3-3-3-3-3-3-3-| |-5--5-5-5-5-5-5-5-5-|
|-1---1-1-1-1-1-1-1-| |-3--3-3-3-3-3-3-3-3-|
|-------------------| |--------------------|

|--------------------------| 
|--------------------------|
|-3--3-3-3-3-3-3-3-3-3-3-3-|
|-3--3-3-3-3-3-3-3-3-3-3-3-|
|-5--5-5-5-5-5-5-5-5-5-5-5-|
|--------------------------|

|------------------|  |------------------|
|------------------|  |------------------|
|-3--3-3-3-3-3-3-3-|  |------------------|
|-3--3-3-3-3-3-3-3-|  |-1~---------------|
|-1--1-1-1-1-1-1-1-|  |-1~---------------|
|------------------|  |-1~---------------|

|------------------|  |------------------|
|------------------|  |------------------|
|-3~---------------|  |-5~---------------|
|-3~---------------|  |-5~---------------|
|-1~---------------|  |-3~---------------|
|------------------|  |------------------|
                                                 The end of Zacky's guitar.
                  The end of the whole song.

I hope you enjoyed it! 
Any comments or suggestions send to my email Syky94@seznam.cz 
Suggest correction
Creating personal tab
Creating personal tab
You can edit any tab online and save it as your Personal.

You can edit, replace or remove any tab part or add personal notes – all changes will be seen only by you.

Personal tabs can be accessed anytime from any device, even offline.
Learn more »
Give kudos to tab author, rate the tab!
1 2 3 4 5
comments
print report bad tab
1 comment total.
0 reply
b-awesome 10 Jan 06, 2010 10:16 AM

ok, the first half of the tab is ok, but the fact that the main intro riff is 3/4's the way down the page is little annoying. BESIDE the fact that it's completely wrong. check ver. 5, it's all sliding on the same string. Listen to the song and you will hear it. not terrible for first tab, but not great.

guest
You may want to rate the tab now too:
select rating
Wanna post a correction for this tab? Suggest correction