Oops, an error
Loading. Please wait.
We have Chord Pro version of Seize The Day.
It's the closest thing you can get to the original song and it has interactive parts. Check out the tab »
×
33,211 views 30 this week
14 commentsread comments
1 2 3 4 5
x 12
add to favorites
×
Save as Personal and add changes to this tab that will be seen only by you. Learn more ›
×
You can save this tab as Personal to edit and correct it or add notes. All changes will be seen only by you. Learn more »
launch autoscroll
font size
0
reset
how to read this tab
guitar tuner
backing track
0:00
0:00
edit
Autoscroll
slow
fast
+/-
esc
set tempo
stop
Author
Difficulty
Unregistered
intermediate
 This Is A Tab From Total Guitar Magazine. 

 Enjoy!

 Zacky Vengence - Tuning: E A D G B E
 
 Synester Gates - Tuning: D A D G B E

 -------
||INTRO||
 -------

-----------------------------------------------0--------1------------|
-----------1--------3-----------------3------------------------------|
--2-----------------0--------0--------0--------0--------2------------|
--0--------3--------------------------------------------0------------|
-----------------------------3--------1--------3---------------------|
---------------------------------------------------------------------|

--------------------------------------------------------------------------|
--------------------------------------------------------------------------|
----------------------------------5---5---5-------5\2--5---10--10-9---9---|
--------5---5---5--5--5--5--5--5--5---5---5----------------10--10-10--10--|
--3-3-4-5---5---5--5--5--5--5--5--3---3---3---5/7------7---8---8--7---7---|
--3-3-4-5---5---5--5--5--5--5--5------------------------------------------|

--------------------------------------------------------------------------|
--------------------------------------------------------------------------|
--7---7---7---7--7---7------------------------------5---5---5------5------|
--7---7---7---7--7---5-----5---5--5--5--5--5--5--5--5---5---5-------------|
--5---5---5---5--5---5--0--5---5--5--5--5--5--5--5--3---3---3--5/7---7\0--|
------------------------0--5---5--5--5--5--5--5--5------------------------|

 -------
||VERSE|| (0:37)
 -------

(Zacky Vengence)

--1-1-1-1-x-x-3-3-3-3-x-x-1-1-1-1-x-x-3-3----0-1-1-1-1-1-1-1-3-3-3--3-x-x-|
--3-3-3-3-x-x-3-3-3-3-x-x-1-1-1-1-x-x-1-1-1--1-3-3-3-3-3-3-3-3-3-3--3-x-x-|
--2-2-2-2-x-x-0-0-0-0-x-x-2-2-2-2-x-x-0-0-0--0-2-2-2-2-2-2-2-0-0-0--0-x-x-|
--0-0-0-0-x-x-0-0-0-0-x-x-3-3-3-3-x-x-2-2-2--2---0-0-0-0-0-0-0-0-0--0-x-x-|
----------------------x-x-3-3-3-3-x-x-3-3-3--3------------------------x-x-|
--------------3-3-3-3-x-x-1-1-1-1-x-x------------------------3-3-3--3-x-x-|

--1--1-----0-0-0-0--|
--1--1-----1-1-1-1--|
--2--2-----0-0-0-0--|
--3--3--3--2-2-2-2--|
--3--3--3--3-3-3-3--|
--1--1--1-----------|

(Synester Gates)

-----1------3-3------1-1--3--1-0-1--1-----3-3-3---1-1-1-0--1--------|
---3--3----3-3-3----1-1-1--1------3--3-----3-3-----1-1---1----------|
----2--2--------------------0------2--2-------------------0---------|
--0-----0-5-----5\-3-----3-------------0-5-----5-3-----3------------|
-------------------------------------------------------------3-3-4--|
-------------------------------------------------------------3-3-4--|
 
 ------------
||Pre Chorus|| (1:05)
 ------------

---------------------------------------------------------13-12-------|
------------------------------------------------------------------15-|
-------------------5---5-5-5--5-5-5/--10--10-9---9-\--7--------14----|
--5--5---5-5--5-5--5---5-5-5--5-5-5/--10--10-10--10\--7--------------|
--5--5---5-5--5-5--3---3-3-3--3-3-3/--8---8--7---7-\--5--------------|
--5--5---5-5--5-5----------------------------------------------------|

 --------
||Chorus|| (1:26)
 --------

----------------------------------------------------------------------|
----------------------------------------------------------------------|
-7--7-7-7--7/-10--10--10-10-10/-12--12-12--12\-5--5\-3--3/-3--5/--10/-|
-7--7-7-7--5/-10--10--10-10-10/-12--12-12--12\-5--5\-3--3/-5--5/------|
-5--5-5-5--5/-8---8---8--8--8-/-10--10-10--10\-3--3\-1--1/-5--3/--8-/-|
----------------------------------------------------------------------|

 ------
||Solo|| (2:51)
 ------

--/13-12----15--------------------------------------------------------|
---------13----13----------------/17b(18)--(18)-(18)-(18)-(18)-(18)---|
------------------12-15-15p14-14--------------------------------------|
----------------------------------------------------------------------|
----------------------------------------------------------------------|
----------------------------------------------------------------------|

----------------------------------------------------------------------|
--(18)BU(20)BD(17)-17-17\-/13-15b(18)-15BU(18)BD(15)p13-15------------|
-----------------------------------------------------------/14-/15----|
----------------------------------------------------------------------|
----------------------------------------------------------------------|
----------------------------------------------------------------------|

------------------------------18----18-17----17BU(20)BD(17)-17-17-17--|
--13-15-----------15----18-15----15-------18--------------------------|
------------15-17----15-----------------------------------------------|
--------/15-----------------------------------------------------------|
----------------------------------------------------------------------|
----------------------------------------------------------------------|

--17-15-15--15---13--15b(17)15b(17)---------10----10------------------|
------------------------------------13b(15)----13----13b(15)----------|
----------------------------------------------------------------------|
----------------------------------------------------------------------|
----------------------------------------------------------------------|
----------------------------------------------------------------------|

--13-10---------------------------------------------------------------|
-------13-10-----13-10------------------------------------------------|
------------13-10-----12-10-------------------------------------------|
---------------------------12p10-12\----8/10--10/12--12/15\-/8--------|
------------------------------------/12-------------------------------|
----------------------------------------------------------------------|
                          
-------------13---------------17b(18)-17-17\-/15BU(17)-15BU(17)-------|
-------11-------11----------18----------------------------------------|
--10-7----10-------10/14--17------------------------------------------|
----------------------------------------------------------------------|
---------------------------^^^^---------------------------------------|
---------------------------rake---------------------------------------|

--BD(15)p13-----------------------------------------------------------|
------------15-18b(20)---15-17---18--15----15\-11-13-15---------------|
----------------------------------------14----------------------------|
----------------------------------------------------------------------|
----------------------------------------------------------------------|
----------------------------------------------------------------------|

----------------------------------------------------------------------|
--15-15-15\13--13\11--11-10-11-10-11p10-------------------------------|
----------------------------------------10\9--10*---------------------|
----------------------------------------------PH----------------------|
----------------------------------------------------------------------|
----------------------------------------------------------------------|

 --------------
||Pre Chorus 2|| (3:33)
 --------------

--------------------------------------------------------------------------|
--------------------------------------------------------------------------|
---------------------5--9--10-12\--7--/-10-10-12--14\-3--3--3-3-3-3--3--3-|
--3--3---3-3-3-3--3--5-------------7------------------3--3--3-3-3-3--3--3-|
--3--3---3-3-3-3--3--3--7--8--10\--5--/-8--8--10--12\-1--1--1-1-1-1--1--1-|
--3--3---3-3-3-3--3-------------------------------------------------------|

---------------------------------------------------------------|
---------------------------------------------------------------|
----------------------5-9--10-12\--7\-------------------3------|
--3--3---3-3-3-3--3--5-----------------------------------------|
--3--3---3-3-3-3--3--3--7--8--10\--5\-------------------1------|
--3--3---3-3-3-3--3--------------------------------------------|

 --------
||Solo 2|| (4:24)
 --------

------------------------------------------------------------------|
--13BU(15)-BD(13)p10-13BU(15)BD(13)BU(15)----BD(13)--13\10-11-10--|
------------------------------------------------------------------|
------------------------------------------------------------------|
------------------------------------------------------------------|
------------------------------------------------------------------|

------------------------------------------------------------------|
-----10-11BU(13)BD(11)-10h11p10-11-13-13b(14)-14h15-14-17-17b(18)-|
--12--------------------------------------------------------------|
------------------------------------------------------------------|
------------------------------------------------------------------|
------------------------------------------------------------------|

-------------------------------------------------|
--\10BU(11)BD(10)BU(11)BD(10)BU(11)BD(10)BU(11)--|
-------------------------------------------------|
-------------------------------------------------|
-------------------------------------------------|
-------------------------------------------------|

-----------------------------------------------------------|
-----------------------------------------------------------|
--\9BU(10)BD(9)BU(10)BD(9)BU(10)BD(9)-9-10-10BU(12)-BD(10)-|
-----------------------------------------------------------|
-----------------------------------------------------------|
-----------------------------------------------------------|

-----------------------------------------------------------|
-----------------------------------------------------------|
--10-9-9BU(10)BD(9)--7\------------------------------------|
-----------------------------------------------------------|
-----------------------------------------------------------|
-----------------------------------------------------------|

 --------
||Bridge||
 --------

---T----T----T----T----T----T----T----T----T----T----T----T---|
--15-3-15-3-15-3-15-3-15-3-15-3-15-3-15-3-15-3-15-3-15-3-15-3-|
--------------------------------------------------------------|
--------------------------------------------------------------|
--------------------------------------------------------------|
--------------------------------------------------------------|

---T----T----T----T----T----T----T----T----T----T----T----T---|
--18-6-18-6-18-6-18-6-18-6-18-6-18-6-18-6-18-6-18-6-18-6-18-6-|
--------------------------------------------------------------|
--------------------------------------------------------------|
--------------------------------------------------------------|
--------------------------------------------------------------|

---T----T----T----T----T----T----T----T----T----T----T----T---|
--17-5-17-5-17-5-17-5-17-5-17-5-17-5-17-5-17-5-17-5-17-5-17-5-|
--------------------------------------------------------------|
--------------------------------------------------------------|
--------------------------------------------------------------|
--------------------------------------------------------------|

---T----T----T----T----T----T----T----T----T----T----T----T---|
--18-6-18-6-18-6-18-6-18-6-18-6-18-6-18-6-18-6-18-6-18-6-18-6-|
--------------------------------------------------------------|
--------------------------------------------------------------|
--------------------------------------------------------------|
--------------------------------------------------------------|

 -------
||Outro|| (5:08)
 -------

--18p15----------15-18p15----------15-17p13----------13-17p13----------13-|
-------15------15--------15------15--------15------13--------15------13---|
---------15--15------------15--15------------14--14------------14--14-----|
-----------17----------------17----------------15----------------15-------|
--------------------------------------------------------------------------|
--------------------------------------------------------------------------|

-----------------------------------------------------------------18p13-----|
--17p14----------14-17p14----------17-18p15----------15-18p15---------15---|
-------14------14--------14------14--------15------15--------15---------15-|
---------14--14------------14--14------------15--15------------15----------|
-----------16----------------16----------------17--------------------------|
---------------------------------------------------------------------------|

--18p15----------15-18p15----------15-17p13----------13-17p13----------13-|
-------15------15--------15------15--------15------13--------15------13---|
---------15--15------------15--15------------14--14------------14--14-----|
-----------17----------------17----------------15----------------15-------|
--------------------------------------------------------------------------|
--------------------------------------------------------------------------|

---------------------------------------|
--17p14----------14-17p14----------14--|
-------14------14--------14------14----|
---------14--14------------14--14------|
-----------16----------------16--------|
---------------------------------------|

---T----T----T----T----T----T----T----T----T----T----T----T---|
--15-3-15-3-15-3-15-3-15-3-15-3-15-3-15-3-15-3-15-3-15-3-15-3-|
--------------------------------------------------------------|
--------------------------------------------------------------|
--------------------------------------------------------------|
--------------------------------------------------------------|

---T----T----T----T----T----T----T----T----T----T----T----T---|
--17-5-17-5-17-5-17-5-17-5-17-5-17-5-17-5-17-5-17-5-17-5-17-5-|
--------------------------------------------------------------|
--------------------------------------------------------------|
--------------------------------------------------------------|
--------------------------------------------------------------|

---T----T----T----T----T----T----T----T----T----T----T----T---|
--18-6-18-6-18-6-18-6-18-6-18-6-18-6-18-6-18-6-18-6-18-6-18-6-|
--------------------------------------------------------------|
--------------------------------------------------------------|
--------------------------------------------------------------|
--------------------------------------------------------------|

---T----T----T----T----T----T----T----T----T----T----T----T---|
--18-6-18-6-18-6-18-6-18-6-18-6-18-6-18-6-18-6-18-6-18-6-18-6-|
--------------------------------------------------------------|
--------------------------------------------------------------|
--------------------------------------------------------------|
--------------------------------------------------------------|

---T----------------------------------------------------------|
--18----------------------------------------------------------|
--------------------------------------------------------------|
--------------------------------------------------------------|
--------------------------------------------------------------|
--------------------------------------------------------------|

            
            
Suggest correction
Creating personal tab
Creating personal tab
You can edit any tab online and save it as your Personal.

You can edit, replace or remove any tab part or add personal notes – all changes will be seen only by you.

Personal tabs can be accessed anytime from any device, even offline.
Learn more »
comments
print report bad tab
14 comments total. Showing first comments.
-1 reply
rich105 10 Mar 02, 2007 02:38 PM

r u retarted i'm nnot even gonna try 2 play it horiable

-1 reply
Audio_bully 10 Mar 23, 2007 12:58 PM

dude this suks...

+1 reply
Ghost:o 118 Apr 21, 2007 07:49 AM

ummm.. You got this from total guitar right?

It dosen't suck xD it's 100% correct.. It's a brilliant tab and sounds perfect.

guest
Wanna post a correction for this tab? Suggest correction