Oops, an error
Loading. Please wait.

Shepherd Of Fire Tab

version 1
version 1

Whole song

122,820 views 177 this week
7 commentsread comments
1 2 3 4 5
accurate
x 13
add to favorites
launch autoscroll
font size
0
reset
how to read this tab
guitar tuner
Tab Pro tools
  • play this tab
  • loop segment
  • change instrument
  • show fretboard
  • metronome
×
Best way to learn
"Shepherd Of Fire"
Autoscroll
slow
fast
+/-
esc
set tempo
stop
Contributor
Difficulty
Tuning
intermediate
D A D G B E
Avenged Sevenfold
Shepard of fire
tuning: drop d
Guitar starts at :16

      Part A       x8                     Part B     x7          On the 7th of Part B
e |---------------------------------|----------------------|-------------------------------|
b |---------------------------------|----------------------|-------------------------------|
g |---------------------------------|----------------------|-------------------------------|
d |---------------------------------|----------------------|-------------------------------|
a |-----5h8--4h7~~~~~~~~------------|------5h8--- 4h7------|-----8--8-----5--5-------------|
D |--0------0-----------------------|----0------0----------|-----8--8-----5--5-------------|
 PM: -      -                            -      -

Part C       x2
e |--------------------------------------------------------------------------------------|
b |--------------------------------------------------------------------------------------|
g |--------------------------------------------------------------------------------------|
d |--------------------------------------------------------------------------------------|
a |--0--5h8--4h7-----------0--5h8--4h7-------------0--5h8--4h7----------8-8----5-5-------|
D |--0---------------------0-----------------------0--------------------8-8----5-5-------|

Part C           x2
e |--------------------------------------------------------------------------------------|
b |--------------------------------------------------------------------------------------|
g |--------------------------------------------------------------------------------------|
d |--0----------------0-----------------0------------------------------------------------|
a |--0------0000000---0-----0000000-----0------0000000-----8-8---5-5---------------------|
D |--0------0000000---0-----0000000-----0------0000000-----8-8---5-5---------------------|

Part C2
e |--------------------------------------------------------------------------------------|
b |--------------------------------------------------------------------------------------|
g |--------------------------------------------------------------------------------------|
d |--------------------------------------------------------------------------------------|
a |---7---5h8--4h7--------8-8--5-5---7----5h8--4h7---------------------------------------|
D |---7-------------------8-8--5-5---7---------------------------------------------------|


Part D (Chorus)                              This part x2
e |-----------------------------|----------------------------------------------|
b |-----------------------------|----------------------------------------------|
g |-----------------------------|----------------------------------------------|
d |-----------------------------|----3---------5-------------------------------|
a |--0----2-3-/--10--10---------|----1-(x8)----3-(x8)----5h8-----4h7-----------|
D |--0----2-3-/--10--10---------|----------------------0--------0--------(x2)--|
Pm:                                                    -        -

Part D2 (chorus continued)
e |--------------------------------------------------------------------------------------|
b |--------------------------------------------------------------------------------------|
g |--------------------------------------------------------------------------------------|
d |---3-----------------5~~~~~~~---------------------------------------------------------|
a |---1--(x8)-----------5~~~~~~~---------------------------------------------------------|
D |---------------------5~~~~~~~---------------------------------------------------------|

The rest of the song is basically the same parts. And I'll post the solo as soon 
as I work it out! :)
comments
print report bad tab
7 comments total. Showing first comments.
0 reply
jarrad.cox.96 wrote on September 6 2013, 06:34 am

Pretty good man great work!

0 reply
jayHawk4732 wrote on October 23 2013, 09:38 pm

Nice! I freakin love this song. First heard it on Blackops2 origins.

0 reply
MellowMusicMea wrote on October 31 2013, 07:18 pm

i love this song sounds legit legit

I want to post or [tab]
guest
You may want to rate the tab now too:
select rating
Please do not post tabs as comments. Select "correction" instead!