Oops, an error
Loading. Please wait.

Shepherd Of Fire Tab

version 2
version 2

Whole song

137,053 views 228 this week
36 commentsread comments
1 2 3 4 5
x 112
add to favorites
launch autoscroll
font size
0
reset
how to read this tab
guitar tuner
Autoscroll
slow
fast
+/-
esc
set tempo
stop
Help us to improve Ultimate-Guitar.com Take our survey!
×
Author
Difficulty
Tuning
advanced
D A D G B E
[Intro]

E |-----------------------------------------------------||
B |-----------------------------------------------------||
G |-----------------------------------------------------||    X4
D |-----------------------------------------------------||
A |-----5/8---4/7~~~~~~~~~~~---5/8---4/7b8~~~~~~~~~~~~~~||
D |---0-----0----------------0-----0--------------------||
      *     *                *     *


E |-----------------------------------------------------|
B |-----------------------------------------------------|
G |-----------------------------------------------------|
D |-----------------------------------------------------|
A |-----5/8---4/7~~~~--5/8---4/7~~~~~5/8---4/7b8~~~~~~~~|
D |---0-----0--------0-----0-------0-----0--------------|
      *     *        *     *       *     *


E |-------------------------------------------------------|
B |-------------------------------------------------------|
G |-------------------------------------------------------|
D |-----------------------------------------------8-8--5-5|
A |-----5/8---4/7~~~~--5/8---4/7~~~~~5/8---4/7~~~~8~8~~5-5|
D |---0-----0--------0-----0-------0-----0--------8-8--5-5|
      *     *        *     *       *     *


[Main riff]

E |------------------------------------------------------|
B |------------------------------------------------------|
G |------------------------------------------------------|
D |---0--------------0-------------0-------------8-8--5-5|
A |---0-5/8---4/7----0-5/8---4/7---0-5/8---4/7---8-8--5-5|
D |---0-----0--------0-----0-------0-----0-------8-8--5-5|
            *              *             *


[Verse]

E|---------------------------------------------------|
B|---------------------------------------------------|
G|---------------------------------------------------|
D|--0-------------0-------------0-----------8-8---5-5|  X2
A|--0-------------0-------------0-----------8-8---5-5|
D|--0-0000000-----0-0000000-----0-0000000---8-8---5-5|
      *******       *******       *******


E|------------------------|
B|------------------------|
G|------------------------|
D|--7-----------8-8---5-5-| X2
A|--7-----------8-8---5-5-|
D|--7-7777777---8-8---5-5-|
      *******


E|------------------------------|
B|------------------------------|
G|------------------------------|
D|------------------------------| X2
A|----5/8----4/7-----5/8----4/7-|
D|--0------0-------0------0-----|
    *      *       *      *


[Chorus]

E|-----------------------------|
B|-----------------------------|
G|--------5-5--3-3-3-3-5-5-5-5-|
D|--0-2-3-5-5--3-3-3-3-5-5-5-5-|
A|--0-2-3-3-3--1-1-1-1-3-3-3-3-|
D|--0-2-3----------------------|


E|------------------------------|
B|------------------------------|
G|------------------------------|
D|------------------------------|
A|----5/8----4/7-----5/8----4/7-|
D|--0------0-------0------0-----|
    *      *       *      *

E|-------------------|
B|-------------------|
G|--3-3-3-3--5-5-5-5-|
D|--3-3-3-3--5-5-5-5-|
A|--1-1-1-1--3-3-3-3-|
D|-------------------|


E|------------------------------|
B|------------------------------|
G|------------------------------|
D|------------------------------|
A|----5/8----4/7-----5/8----4/7-|
D|--0------0-------0------0-----|
    *      *       *      *
E|-----------------|
B|-----------------|
G|--3-3-3-3--------|
D|--3-3-3-3--5~~~~~|
A|--1-1-1-1--5~~~~~|
D|-----------5~~~~~|



[Syn's fill in the chorus]

E|-------------------------|
B|-------------------------|
G|-------------------------|
D|--/8~~~~~~~~/10~~~~~~~~~~|
A|-------------------------|
D|-------------------------|


[Verse]

E|---------------------------------------------------|
B|---------------------------------------------------|
G|---------------------------------------------------|
D|--0-------------0-------------0-----------8-8---5-5|  X2
A|--0-------------0-------------0-----------8-8---5-5|
D|--0-0000000-----0-0000000-----0-0000000---8-8---5-5|
      *******       *******       *******


E|------------------------|
B|------------------------|
G|------------------------|
D|--7-----------8-8---5-5-| X2
A|--7-----------8-8---5-5-|
D|--7-7777777---8-8---5-5-|
      *******


E|------------------------------|
B|------------------------------|
G|------------------------------|
D|------------------------------| X2
A|----5/8----4/7-----5/8----4/7-|
D|--0------0-------0------0-----|
    *      *       *      *


[Chorus]

E|-----------------------------|
B|-----------------------------|
G|--------5-5--3-3-3-3-5-5-5-5-|
D|--0-2-3-5-5--3-3-3-3-5-5-5-5-|
A|--0-2-3-3-3--1-1-1-1-3-3-3-3-|
D|--0-2-3----------------------|


E|------------------------------|
B|------------------------------|
G|------------------------------|
D|------------------------------|
A|----5/8----4/7-----5/8----4/7-|
D|--0------0-------0------0-----|
    *      *       *      *

E|-------------------|
B|-------------------|
G|--3-3-3-3--5-5-5-5-|
D|--3-3-3-3--5-5-5-5-|
A|--1-1-1-1--3-3-3-3-|
D|-------------------|


E|------------------------------|
B|------------------------------|
G|------------------------------|
D|------------------------------|
A|----5/8----4/7-----5/8----4/7-|
D|--0------0-------0------0-----|
    *      *       *      *
E|-----------------|
B|-----------------|
G|--3-3-3-3--------|
D|--3-3-3-3--5~~~~~|
A|--1-1-1-1--5~~~~~|
D|-----------5~~~~~|


[Solo]

E|--15b17r15b18r15-12-------------12-14-15-16p12-16p12--12-15p12-15p12----|
B|-------------------14-12-14b~~14--------------------14--------------13--|
G|------------------------------------------------------------------------|
D|------------------------------------------------------------------------|
A|------------------------------------------------------------------------|
D|------------------------------------------------------------------------|


E|--11-14p11-14p11-----12p9-12p9----11p8-11p8---------8b10---------------|
B|----------------12\10---------10\8---------10p8b10------9p7p5-7b8------|
G|-----------------------------------------------------------------9p7p6-|
D|-----------------------------------------------------------------------|
A|-----------------------------------------------------------------------|
D|-----------------------------------------------------------------------|


E|--9b11-9p7p5/15b17r15b18r15------------------------------------------|
B|----------------------------1818181818151515151517171717171818181818-|
G|---------------------------------------------------------------------|
D|---------------------------------------------------------------------|
A|---------------------------------------------------------------------|
D|---------------------------------------------------------------------|


E|--------------------------------------------------------------------|
B|--1313131313131313101010101010101013131313131313101010101010108/10~~|
G|--------------------------------------------------------------------|
D|--------------------------------------------------------------------|
A|--------------------------------------------------------------------|
D|--------------------------------------------------------------------|



************************************

| p  Pull-off
| r  Release
| b  Bend
| /  Slide up
| \  Slide down
| ~  Vibrato 

************************************
Suggest correction
comments
print report bad tab
36 comments total. Showing first comments.
+7 reply
ii Am JaaacK x 99 Aug 24, 2013 10:58 PM

hey good job so far! any chance you could do the rhythm on the solo as well? Cheers.

+1 reply
SynGates*-* 10 Aug 25, 2013 12:39 PM

If you end the song so accurate like the beginning, 5 stars :)

0 reply
yonik500 140 Aug 28, 2013 02:10 PM

Thank you man im going to finish it realy soon and im glad you like cause it the first song i transcribe and write tabs to

guest
You may want to rate the tab now too:
select rating
Wanna post a correction for this tab? Suggest correction