Oops, an error
Loading. Please wait.

Sidewinder Tab

version 1
version 1
197,011 views 165 this week
37 commentsread comments
1 2 3 4 5
excellent!
x 69
add to favorites
launch autoscroll
font size
0
reset
how to read this tab
guitar tuner
Autoscroll
slow
fast
+/-
esc
set tempo
stop
Help us to improve Ultimate-Guitar.com Take our survey!
×
Author
Difficulty
Tuning
advanced
D A D G B E
SIDEWINDER
A7x

Gtr I (D A D G B E) - 'Guitar 1 Distortion (left ear)'
Gtr II (D A D G B E) - 'Guitar 2 Distortion (right ear)'
Gtr III (D A D G B E) - 'Guitar 3 Neutral Distortion'
Gtr IV (D A D G B E) - 'Guitar 4 Clean (left ear)'
Gtr V (D A D G B E) - 'Guitar 5 Clean Guitar (right ear)'
Gtr VI (D A D G B E) - 'Guitar 6 Clean Neutral'



[Intro]

     Q=124
     N.C.
    4/4
     Gtr I
      H     +E   E  +E   E    Q.    S  S  Q    Q
E||------------------------|-----------------/12--|
B||o-10----(10)---------10-|-13----11-10----------|
G||-------------10-(10)----|-------------12-------|
D||------------------------|----------------------|
A||o-----------------------|----------------------|
D||------------------------|----------------------|
 |
 |   Gtr II
 |    H     +E   E  +E   E    Q.    S  S  Q    Q
E||------------------------|------------------/8--|
B||o--6-----(6)----------6-|-10-----8--6--5-------|
G||--------------7--(7)----|----------------------|
D||------------------------|----------------------|
A||o-----------------------|----------------------|
D||------------------------|----------------------|


    Q.     E  +E   E  Q     Q.    S  S  S  S  S  S  Q
E|-10----/13-(13)-12-10--|-------------10---------------||
B|-----------------------|-13----11-13----13-11-13-----o||
G|-----------------------|-------------------------12---||
D|-----------------------|------------------------------||
A|-----------------------|-----------------------------o||
D|-----------------------|------------------------------||
|
 |  Q.     E  +E   E  Q     Q.    S  S  S  S  S  S  Q
E|--6----/10-(10)--8--6--|--5--------5--6--5-----5------||
B|-----------------------|--------8-----------8-----5--o||
G|-----------------------|------------------------------||
D|-----------------------|------------------------------||
A|-----------------------|-----------------------------o||
D|-----------------------|------------------------------||


[Pre-Verse]

  D5
  Gtrs I, II
     PM|       PM----|       PM----|   PM----|
  Q  S S E +E  S S S S E   E S S S S E E E S S E
E|------------------------|-----------------------|
B|------------------------|-----------------------|
G|------------------------|-----------------------|
D|-0------0-(0)-----------|-----------------------|
A|-0--0-0-0-(0)-0-0-0-0---|---0-0-0-0---0-0-0-0---|
D|-0--0-0-0-(0)-0-0-0-0---|---0-0-0-0---0-0-0-0---|


      PM|       PM----|       PM----|   PM----|
   Q  S S E +E  S S S S E   E S S S S E E E S S E
E|------------------------|-----------------------|
B|------------------------|-----------------------|
G|------------------------|-----------------------|
D|-0------0-(0)-----------|-----------------------|
A|-0--0-0-0-(0)-0-0-0-0---|---0-0-0-0---0-0-0-0---|
D|-0--0-0-0-(0)-0-0-0-0---|---0-0-0-0---0-0-0-0---|
 

  D5
  Gtrs I, II 
           PM-|       PM----|         PM------|      PM------| 
   Q       S  S E +E  S S S S  E   E  S  S  S  S  E  E  E  S  S  E
E|--------------------------------|---------------------------------|
B|--------------------------------|---------------------------------|
G|--------------------------------|---------------------------------|
D|--0------------0-(0)------------|---------------------------------|
A|--0-------0--0-0-(0)-0-0-0-0----|----0--0--0--0-----0--0--0--0----|
D|--0-------0--0-0-(0)-0-0-0-0----|----0--0--0--0-----0--0--0--0----|
 |
 | Gtr III
 |  E.  S  +E    E +E  S S S E.     E  S  S  S  E.    E  E  S  E.
E|--------------------------------|---------------------------------|
B|--------------------------------|---11-11-11-11----11-11-11-14----|
G|-11--14-(14)---7-(7)-7-7-7-7----|-7--x--x--x--x-----x--x--x--x----|
D|--x---x--------x-----x-x-x-x----|-x--8--8--8--8-----8--8--8-11----|
A|--9--12-(12)---5-(5)-5-5-5-5----|-5-------------------------------|
D|--------------------------------|---------------------------------|


  D5
  Gtr I 
           PM-|       PM----|         PM------|      PM------| 
   Q       S  S E +E  S S S S  E   E  S  S  S  S  E  E  E  S  S  E
E|--------------------------------|---------------------------------|
B|--------------------------------|---------------------------------|
G|--------------------------------|---------------------------------|
D|--0------------0-(0)------------|---------------------------------|
A|--0-------0--0-0-(0)-0-0-0-0----|----0--0--0--0-----0--0--0--0----|
D|--0-------0--0-0-(0)-0-0-0-0----|----0--0--0--0-----0--0--0--0----|
 |
 | Gtr II 
 |          PM-|       PM----|         PM------|      PM------| 
 |  Q       S  S E +E  S S S S  E   E  S  S  S  S  E  E  E  S  S  E
E|--------------------------------|---------------------------------|
B|--------------------------------|---------------------------------|
G|--------------------------------|---------------------------------|
D|--0------------0-(0)------------|---------------------------------|
A|--0-------0--0-0-(0)-0-0-0-0----|----0--0--0--0-----0--0--0--0----|
D|--0-------0--0-0-(0)-0-0-0-0----|----0--0--0--0-----0--0--0--0----|
 |
 | Gtr III
 |  E.  S  +E    E +E  S S S E.     E  S  S  S  E.    E  E  S  E.
E|--------------------------------|---------------------------------|
B|--------------------------------|---11-11-11-11----11-11-11-14----|
G|-11--14-(14)---7-(7)-7-7-7-7----|-7--x--x--x--x-----x--x--x--x----|
D|--x---x--------x-----x-x-x-x----|-x--8--8--8--8-----8--8--8-11----|
A|--9--12-(12)---5-(5)-5-5-5-5----|-5-------------------------------|
D|--------------------------------|---------------------------------|


  N.C.
                                              |--3--|
    S  S  S  S  S  S  S  S  S  S  S  S  E     S  S  S
E|-10-10-------13-13-------17-17-------20b21-13-10-----||
B|-------10-10-------14-14-------17-17-------------10--||
G|-----------------------------------------------------||
D|-----------------------------------------------------||
A|-----------------------------------------------------||
E|-----------------------------------------------------||
 |
 |                                            |--3--|
 |  S  S  S  S  S  S  S  S  S  S  S  S  E     S  S  S
E|-10-10-------13-13-------17-17-------17b18-17-15-----||
B|-------10-10-------14-14-------17-17-------------17--||
G|-----------------------------------------------------||
D|-----------------------------------------------------||
A|-----------------------------------------------------||
E|-----------------------------------------------------||
 |
 |  W
E|-----------------------------------------------------||
B|-----------------------------------------------------||
G|-----------------------------------------------------||
D|-----------------------------------------------------||
A|-----------------------------------------------------||
D|-----------------------------------------------------||


[Verse]

   N.C.
    ~~~
    H.            Q       E  +E      +H.
E|-13------------13----|-13-(13)b16-(13)-----------|
B|---------------------|---------------------------|
G|---------------------|---------------------------|
D|---------------------|---------------------------|
A|---------------------|---------------------------|
D|---------------------|---------------------------|
|
 |  ~~~
 |  H.            E  E    E  +E      +H.
E|---------------------|---------------------------|
B|-15------------15----|-15-(15)b18-(15)-----------|
G|------------------14-|---------------------------|
D|---------------------|---------------------------|
A|---------------------|---------------------------|
D|---------------------|---------------------------|
 |
 |  E  E E E E E  E  E    E   E       E  E E E E E
E|---------------------|---------------------------|
B|---------------------|---------------------------|
G|---------------------|---------------------------|
D|-----7-----5---------|-------------------5-------|
A|-------8-----7-------|--5--/8-------7------8-7---|
D|--0------7------0--3-|-----------------6-------7-|


   W                 W
E|-----------------|------------------|
B|-----------------|------------------|
G|-----------------|------------------|
D|-----------------|------------------|
A|-----------------|------------------|
D|-----------------|------------------|
 |
 | W                 W
E|-----------------|------------------|
B|-----------------|------------------|
G|-----------------|------------------|
D|-----------------|------------------|
A|-----------------|------------------|
D|-----------------|------------------|
 |
 | E E E E E E E E   E  E E E  E E Q
E|-----------------|------------------|
B|-----------------|------------------|
G|-----------------|------------------|
D|---7-----5-------|----------/8-7----|
A|-----8-----7-----|-5-/8-7--------4--|
D|-0-----7-----0-3-|--------6---------|


   N.C.
   Gtr III
   E E E E E E E E   E  E E E E E E E   E E E E E E E E   E  E E E  E E Q
E|-----------------|------------------|-----------------|------------------||
B|-----------------|------------------|-----------------|------------------||
G|-----------------|------------------|-----------------|------------------||
D|---7-----5-------|----------5-------|---7-----5-------|----------/8-7----||
A|-----8-----7-----|-5-/8-7-----8-7---|-----8-----7-----|-5-/8-7--------4--||
D|-0-----7-----0-3-|--------6-------7-|-0-----7-----0-3-|--------6---------||


[Pre-Chorus]

   $
   N.C.
   Gtr I
      PM   PM            PM
   E  E E  E E E E E   E E E E E  E E E
E|-------------------|------------------|
B|-------------------|------------------|
G|-------------------|------------------|
D|-8----8----7---7---|---------8----7---|
A|---10---10---8---8-|-7-4-5-7---10---8-|
D|-------------------|------------------|
 |
 | Gtr II
 |    PM   PM            PM
 | E  E E  E E E E E   E E E E E  E E E
E|-------------------|------------------|
B|-------------------|------------------|
G|-----------7-------|------------------|
D|-8----8--------7---|---------8----7---|
A|---10---10---8---8-|-7-4-5-7---10---8-|
D|-------------------|------------------|


      PM   PM
   E  E E  E E E E E   S S S S S S S S S S S S E +E
E|-------------------|-------------------------5-(5)\-||
B|-------------------|-------------6-5-6-5-6-8--------||
G|-7----7----5---5---|---------7-6--------------------||
D|----8----8---7---7-|-7-6-7-8------------------------||
A|-------------------|--------------------------------||
D|-------------------|--------------------------------||
 |
 |    PM   PM
 | E  E E  E E E E E   S S S S S S S S S S S S E +E
E|-------------------|--------------------------------||
B|-------------------|-------------3-2-3-2-3-5-6-(6)\-||
G|-----------7-------|---------3-2--------------------||
D|-8----8--------7---|-3-2-3-5------------------------||
A|---10---10---8---8-|--------------------------------||
D|-------------------|--------------------------------||


[Chorus]

     D5                      F5            C/E
     Gtr I
      H     +E   E  +E   E    Q.      S  S  Q     Q
E||------------------------|--------------------/12--|
B||o-10----(10)---------10-|-13------11-10-----------|
G||-------------10-(10)----|---------------12--------|
D||------------------------|-------------------------|
A||o-----------------------|-------------------------|
D||------------------------|-------------------------|
 |
 |   Gtr II
 |    H     +E   E  +E   E    Q.      S  S  Q     Q
E||------------------------|---------------------/8--|
B||o--6-----(6)----------6-|-10-------8--6--5--------|
G||--------------7--(7)----|-------------------------|
D||------------------------|-------------------------|
A||o-----------------------|-------------------------|
D||------------------------|-------------------------|
 |
 |   Gtr III
 |    H     +E   E  +E   E    E  E Q        E E   Q
E||------------------------|-------------------------|
B||o-----------------------|-------------------------|
G||------------------------|-------------------------|
D||---0-----(0)--0--(0)--0-|--3--3-3--------2-2---2--|
A||o--0-----(0)--0--(0)--0-|--3--3-3--------3-3---3--|
D||---0-----(0)--0--(0)--0-|--3--3-3--------2-2---2--|


                                                     To Coda
   Bb5                         F5            C/E
    Q.       E  +E   E  Q       Q.      S  S  S  S  S  S  Q
E|-10------/13-(13)-12-10----|---------------10-----------------||
B|---------------------------|-13------11-13----13-11-13-------o||
G|---------------------------|---------------------------12-----||
D|---------------------------|----------------------------------||
A|---------------------------|---------------------------------o||
D|---------------------------|----------------------------------||
 |
 |  Q.       E  +E   E  Q       Q.      S  S  S  S  S  S  Q
E|--6------/10-(10)--8--6----|--5----------5--6--5-----5--------||
B|---------------------------|----------8-----------8-----5----o||
G|---------------------------|----------------------------------||
D|---------------------------|----------------------------------||
A|---------------------------|---------------------------------o||
D|---------------------------|----------------------------------||
 |
 |  E  E E   E  +E   E +E  E    E  E E  E     E     E     E E
E|---------------------------|----------------------------------||
B|---------------------------|---------------------------------o||
G|--3--3-3---3--(3)--3-(3)-3-|----------------------------------||
D|--3--3-3---3--(3)--3-(3)-3-|--3--3-3--3-----2-----2-----2-2---||
A|--1--1-1---1--(1)--1-(1)-1-|--3--3-3--3-----3-----3-----3-3--o||
D|---------------------------|--3--3-3--3-----2-----2-----2-2---||


[Pre-Verse]

    D5
    Gtrs I, II
              PM-|       PM----|         PM------|      PM------|
      Q       S  S E +E  S S S S  E   E  S  S  S  S  E  E  E  S  S  E
E||---------------------------------|---------------------------------|
B||o--------------------------------|---------------------------------|
G||---------------------------------|---------------------------------|
D||---0------------0-(0)------------|---------------------------------|
A||o--0-------0--0-0-(0)-0-0-0-0----|----0--0--0--0-----0--0--0--0----|
E||---0-------0--0-0-(0)-0-0-0-0----|----0--0--0--0-----0--0--0--0----|
 |
 |   Gtr III
 |    E.  S  +E    E +E  S S S E.     E  S  S  S  E.    E  E  S  E.
E||---------------------------------|---------------------------------|
B||o--------------------------------|---11-11-11-11----11-11-11-14----|
G||--11--14-(14)---7-(7)-7-7-7-7----|-7--x--x--x--x-----x--x--x--x----|
D||---x---x--------x-----x-x-x-x----|-x--8--8--8--8-----8--8--8-11----|
A||o--9--12-(12)---5-(5)-5-5-5-5----|-5-------------------------------|
D||---------------------------------|---------------------------------|


            PM-|       PM----|         PM------|      PM------|
    Q       S  S E +E  S S S S  E   E  S  S  S  S  E  E  E  S  S  E
E|--------------------------------|------------------------------------||
B|--------------------------------|-----------------------------------o||
G|--------------------------------|------------------------------------||
D|--0------------0-(0)------------|------------------------------------||
A|--0-------0--0-0-(0)-0-0-0-0----|----0--0--0--0-----0--0--0--0------o||
E|--0-------0--0-0-(0)-0-0-0-0----|----0--0--0--0-----0--0--0--0-------||
 |
 |  E.  S  +E    E +E  S S S E.     E  S  S  S  E.    E  E  S  E.
E|--------------------------------|------------------------------------||
B|--------------------------------|---11-11-11-11----11-11-11-14------o||
G|-11--14-(14)---7-(7)-7-7-7-7----|-7--x--x--x--x-----x--x--x--x-------||
D|--x---x--------x-----x-x-x-x----|-x--8--8--8--8-----8--8--8-11-------||
A|--9--12-(12)---5-(5)-5-5-5-5----|-5---------------------------------o||
D|--------------------------------|------------------------------------||


   N.C.
   Gtr I
   W                        S  S  S  S  S  S  S  S  S  S  S  S  Q
E|-----------------------|-10-10-------13-13-------17-17-------20b21------||
B|-----------------------|-------10-10-------14-14-------17-17------------||
G|-----------------------|------------------------------------------------||
D|-----------------------|------------------------------------------------||
A|-----------------------|------------------------------------------------||
D|-----------------------|------------------------------------------------||
 |
 | Gtr II
 | W                        S  S  S  S  S  S  S  S  S  S  S  S  E     +E
E|-----------------------|-10-10-------13-13-------17-17-------17b18-(17)-||
B|-----------------------|-------10-10-------14-14-------17-17------------||
G|-----------------------|------------------------------------------------||
D|-----------------------|------------------------------------------------||
A|-----------------------|------------------------------------------------||
D|-----------------------|------------------------------------------------||
 |
 | Gtr III
 | E. S +E  E +S  E. E E    W
E|-----------------------|------------------------------------------------||
B|-----------------------|------------------------------------------------||
G|-----------------------|------------------------------------------------||
D|-----------------------|------------------------------------------------||
A|-5--3-(3)-8-(8)--------|------------------------------------------------||
D|----------------7--8-7-|------------------------------------------------||


[Verse]

   N.C.
    Q        +H.              +Q      +E     S  S  E  E  E  E
E|-20b22====(20)-----------|-(20)----(20)r\-------------------|
B|-------------------------|----------------------10----------|
G|-------------------------|----------------10-12----12-10-12-|
D|-------------------------|----------------------------------|
A|-------------------------|----------------------------------|
D|-------------------------|----------------------------------|
 |
 |  ~~~~~~~~~~~~~~~~~~~~~~~~~~~~~~
 |  W                         +Q      +E     S  S  E  E  E  E
E|-17----------------------|-(17)----(17)\--------------------|
B|-------------------------|----------------15-17-18-17-15----|
G|-------------------------|-------------------------------15-|
D|-------------------------|----------------------------------|
A|-------------------------|----------------------------------|
D|-------------------------|----------------------------------|
 |
 |  E     E   E  E E E E E     E   E   E     E     E  E  E  E
E|-------------------------|----------------------------------|
B|-------------------------|----------------------------------|
G|-------------------------|----------------------------------|
D|--------7--------5-------|-----------------------5----------|
A|------------8------7-----|---5--/8---7--------------8--7----|
D|--0------------7-----0-3-|-----------------6--------------7-|


    ~~~~~~~~~~~~~~~~~~~~~~~~~~~
    W                      +H          E.    E.    E
E|----------------------|--------------------------9---|
B|----------------------|-------------10----11---------|
G|-10-------------------|-(10)-------------------------|
D|----------------------|------------------------------|
A|----------------------|------------------------------|
D|----------------------|------------------------------|
 |
 |         ~~~~~~~~~~~~~~~~~~~~
 |  E  E  +H.              +H          E.    E.    E
E|----------------------|------------------------------|
B|-15-------------------|-------------14----15----17---|
G|----14-(14)-----------|-(14)-------------------------|
D|----------------------|------------------------------|
A|----------------------|------------------------------|
D|----------------------|------------------------------|
 |
 |  E  E   E  E E E E E     E   E E E  E  E     Q
E|----------------------|------------------------------|
B|----------------------|------------------------------|
G|----------------------|------------------------------|
D|-----7--------5-------|-------------/8--7------------|
A|---------8------7-----|---5--/8-7-------------4------|
D|--0---------7-----0-3-|-----------6------------------|


   N.C.
    Q        +H.              +Q      +Q       E.    E.    E
E|--9b10=====(9)-----------|--(9)-----(9)r\----9----10----12-|
B|-------------------------|---------------------------------|
G|-------------------------|---------------------------------|
D|-------------------------|---------------------------------|
A|-------------------------|---------------------------------|
D|-------------------------|---------------------------------|
 |
 |  Q        +H.              +Q      +Q       E.    E.    E
E|-------------------------|------------------------------16-|
B|-17b18====(17)-----------|-(17)----(17)r\---17----18-------|
G|-------------------------|---------------------------------|
D|-------------------------|---------------------------------|
A|-------------------------|---------------------------------|
D|-------------------------|---------------------------------|
 |
 |  E     E   E  E E E E E     E   E   E    E  E  E     E  E
E|-------------------------|---------------------------------|
B|-------------------------|---------------------------------|
G|-------------------------|---------------------------------|
D|--------7--------5-------|-------------------5-------------|
A|------------8------7-----|---5--/8---7----------8-----7----|
D|--0------------7-----0-3-|----------------6--------------7-|


                                                           D.S. al Coda
    Q        +H.              +Q      +E     S  S  S  S  S  S  S  S  S  S
E|-12b13====(12)-----------|-(12)----(12)r\-12-13-15-13-12-13-15-13-12-13-||
B|-------------------------|----------------------------------------------||
G|-------------------------|----------------------------------------------||
D|-------------------------|----------------------------------------------||
A|-------------------------|----------------------------------------------||
D|-------------------------|----------------------------------------------||
|
 |  Q        +H.              +Q      +E     S  S  S  S  S  S  S  S  S  S
E|-16b17====(16)-----------|-(16)----(16)r\-16-17-18-17-16-17-18-17-16-17-||
B|-------------------------|----------------------------------------------||
G|-------------------------|----------------------------------------------||
D|-------------------------|----------------------------------------------||
A|-------------------------|----------------------------------------------||
D|-------------------------|----------------------------------------------||
|
 |  E     E   E  E E E E E     E   E   E     E     E     E     Q
E|-------------------------|----------------------------------------------||
B|-------------------------|----------------------------------------------||
G|-------------------------|----------------------------------------------||
D|--------7--------5-------|----------------------/8-----7----------------||
A|------------8------7-----|---5--/8---7-----------------------4----------||
D|--0------------7-----0-3-|-----------------6----------------------------||


[Bridge]

     &
     F5                  Ab5            Eb/G
     Gtrs I, II
     Q.     Q   Q    E    +E   E  +E  E +E  E +E   E
E||--------------------|-----------------------------|
B||o-6------9---8---13-|-(13)-11-(11)-8-(8)-9-(9)-14-|
G||--x------x---x----x-|-------x------x-----x------x-|
D||--3------6---5---10-|-(10)--8--(8)-5-(5)-6-(6)-11-|
A||o-------------------|-----------------------------|
D||--------------------|-----------------------------|
|
 |   Gtr III
 |   E  E E E E E E  E     E   E   E  E  E  E  E   E
E||--------------------|-----------------------------|
B||o-------------------|-----------------------------|
G||--------------------|-----------------------------|
D||--3--3-3-3-3-3-3--3-|---6---6---6--6--5--5--5---5-|
A||o-3--3-3-3-3-3-3--3-|---6---6---6--6--6--6--6---6-|
D||--3--3-3-3-3-3-3--3-|---6---6---6--6--5--5--5---5-|


   Db5                  Ab5     Eb/G
    E  E  E E Q   E E   E E E E Q   Q
E|--------------------|------------------||
B|-14-13-11s9-9---9s8-|-8s9-9s4-4---4---o||
G|--x--x--x---x---x---|-x---x---x---x----||
D|-11-10--8s6-6---6s5-|-5s6-6s1-1---1----||
A|--------------------|-----------------o||
D|--------------------|------------------||
|
 |  E  E  E E E E E E   E E E E E E E E
E|--------------------|------------------||
B|--------------------|-----------------o||
G|--6--6--6-6-6-6-6-6-|------------------||
D|--6--6--6-6-6-6-6-6-|-6-6-6-6-5-5-5-5--||
A|--4--4--4-4-4-4-4-4-|-6-6-6-6-6-6-6-6-o||
D|--------------------|-6-6-6-6-5-5-5-5--||


     $$
     Eb5                                  B5
     H.                        Q           H.                          Q
E||-------------------------------------|--------------------------------------|
B||o------------------------------------|--------------------------------------|
G||--8-------------------------8\-------|--4---------------------------4-------|
D||--8-------------------------8\-------|--4---------------------------4-------|
A||o-6-------------------------6\-------|--2---------------------------2-------|
D||-------------------------------------|--------------------------------------|
 |
 |   |-3--|  |--3--|  |--3--|  |--3---|    |--3---|  |--3--|  |--3--|  |--3--|
 |   E  E E  E  E  E  E  E  E  E   E  E    E   E  E  E  E  E  E  E  E  E  E  E
E||---------------11-----------------11-|-----------------------11s14-11-------|
B||o-----------11----11-----------11----|-12-----------------12----------12----|
G||---------11----------11----11--------|-----11----------11----------------11-|
D||-------8----------------13-----------|--------13----13----------------------|
A||o-6--9-------------------------------|-----------14-------------------------|
E||-------------------------------------|--------------------------------------|
 
 
                                                          To Dbl. Coda
   F5                                     Eb5
    H.                          Q          H.                       Q
E|--------------------------------------|------------------------------------||
B|--------------------------------------|-----------------------------------o||
G|--------------------------------------|------------------------------------||
D|--3---------------------------3-------|--1------------------------1--------||
A|--3---------------------------3-------|--1------------------------1-------o||
D|--3---------------------------3-------|--1------------------------1--------||
 |
 |                                                                  ~
 |  |--3---|  |--3--|  |--3--|  |--3--|    |--3---|  |-3--|  |-3--| |3-|
 |  E   E  E  E  E  E  E  E  E  E  E  E    E   E  E  E  E E  E  E E Q +E
E|-16--13----------------13s16-13-------|-14--13-11--------------------------||
B|--------13----------13----------13----|-----------12----------------------o||
G|-----------13----13----------------13-|--------------11s8-11-10-8----------||
D|--------------15----------------------|---------------------------9-(9)\---||
A|--------------------------------------|-----------------------------------o||
E|--------------------------------------|------------------------------------||
 
 
[Breakdown]

   D5
   E.     E.      E.       E.  E E   E.     E.      E.       E.  E E
E|---------------------------------|---------------------------------|
B|---------------------------------|---------------------------------|
G|-7------9------10------/12--10-9-|-7------9------10------/12--10-9-|
D|-x------x-------x--------x---x-x-|-x------x-------x--------x---x-x-|
A|-5------7-------8------/10---8-7-|-5------7-------8------/10---8-7-|
D|---------------------------------|---------------------------------|
 |
 | PM----------|                     PM----------|
 | S  S S S  S S  E  +H              S  S S S  S S  E  +H
E|---------------------------------|---------------------------------|
B|---------------------------------|---------------------------------|
G|---------------------------------|---------------------------------|
D|----------------0--(0)-----------|----------------0--(0)-----------|
A|-0--0-0-0--0-0--0--(0)-----------|-0--0-0-0--0-0--0--(0)-----------|
E|-0--0-0-0--0-0--0--(0)-----------|-0--0-0-0--0-0--0--(0)-----------|
 
 
   Bb5
   E.     E.      E.       E.  E E   E.     E.      E.       E.  E E
E|---------------------------------|---------------------------------|
B|---------------------------------|---------------------------------|
G|-7------9------10------/12--10-9-|-7------9------10------/12--10-9-|
D|-x------x-------x--------x---x-x-|-x------x-------x--------x---x-x-|
A|-5------7-------8------/10---8-7-|-5------7-------8------/10---8-7-|
D|---------------------------------|---------------------------------|
 |
 | PM----------|                     PM----------|
 | S  S S S  S S  E  +H              S  S S S  S S  E  +H
E|---------------------------------|---------------------------------|
B|---------------------------------|---------------------------------|
G|---------------------------------|---------------------------------|
D|----------------8--(8)-----------|----------------8--(8)-----------|
A|-8--8-8-8--8-8--8--(8)-----------|-8--8-8-8--8-8--8--(8)-----------|
E|-8--8-8-8--8-8--8--(8)-----------|-8--8-8-8--8-8--8--(8)-----------|
 
 
   C5
    E.        E.        E.        E.  E E
E|----------------------------------------|
B|----------------------------------------|
G|--7---------9--------10-------/12--10-9-|
D|--x---------x---------x---------x---x-x-|
A|--5---------7---------8-------/10---8-7-|
D|----------------------------------------|
 |
 |  PM--------------|
 |  S   S  S  S   S  S  E   +H
E|----------------------------------------|
B|----------------------------------------|
G|----------------------------------------|
D|---------------------10--(10)-----------|
A|-10--10-10-10--10-10-10--(10)-----------|
E|-10--10-10-10--10-10-10--(10)-----------|
 
 
                                            D5
    E.        E.        E.        E.  E E   E.     E.      E.       E.  E E
E|----------------------------------------|---------------------------------||
B|----------------------------------------|---------------------------------||
G|--7---------9--------10-------/12--10-9-|-7------9------10------/12--10-9-||
D|--x---------x---------x---------x---x-x-|-x------x-------x--------x---x-x-||
A|--5---------7---------8-------/10---8-7-|-5------7-------8------/10---8-7-||
D|----------------------------------------|---------------------------------||
 |
 |  PM--------------|                       PM----------|
 |  S   S  S  S   S  S  E   +H              S  S S S  S S  E  +H
E|----------------------------------------|---------------------------------||
B|----------------------------------------|---------------------------------||
G|----------------------------------------|---------------------------------||
D|---------------------10--(10)-----------|----------------0--(0)-----------||
A|-10--10-10-10--10-10-10--(10)-----------|-0--0-0-0--0-0--0--(0)-----------||
E|-10--10-10-10--10-10-10--(10)-----------|-0--0-0-0--0-0--0--(0)-----------||
 
 
[Verse]

   DmD5                        Em6
   Gtrs I, II
     PM----|   PM----|   PM|      PM----|    PM----|    PM|
   E S S S S E S S S S E S S    E S S S S  E S S S S  E S S
E|---------------------------|------------------------------|
B|---------------------------|------------------------------|
G|---------------------------|------------------------------|
D|-3---------7---------7-----|-10---------10---------10-----|
A|-5-0-0-0-0-5-0-0-0-0-5-0-0-|--7-7-7-7-7--7-7-7-7-7--7-7-7-|
D|---0-0-0-0---0-0-0-0---0-0-|------------------------------|


   F5
      PM----|    PM----|    PM|
    E S S S S  E S S S S  E S S
E|------------------------------|
B|------------------------------|
G|------------------------------|
D|-10---------10---------10-----|
A|--8-8-8-8-8--8-8-8-8-8--8-8-8-|
D|------------------------------|


              Fsus2     F       Db5
      PM----|   PM----|   PM|     PM----|   PM----|   PM|
    E S S S S E S S S S E S S   E S S S S E S S S S E S S
E|----------------------------|---------------------------||
B|----------------------------|---------------------------||
G|----------------------------|---------------------------||
D|-10---------5---------7-----|-6---------6---------6-----||
A|--8-8-8-8-8-8-8-8-8-8-8-8-8-|-4-4-4-4-4-4-4-4-4-4-4-4-4-||
D|----------------------------|---------------------------||


   Bb5                Ab5
   Gtr I
                      ~~
    E. E. E E. E. E   H        E +E    E +E
E|------------------|-------------------------|
B|-/6--6--6-6--4--2-|-4-------/5-(5)\-/7-(7)\-|
G|------------------|-------------------------|
D|------------------|-------------------------|
A|------------------|-------------------------|
D|------------------|-------------------------|
 |
 | Gtr II
 |                    ~~
 |  E. E. E E. E. E   H        E +E    E +E
E|------------------|-------------------------|
B|------------------|-------------------------|
G|--6--6--6-6--5--3-|-5-------/6-(6)\-/8-(8)\-|
D|------------------|-------------------------|
A|------------------|-------------------------|
D|------------------|-------------------------|
 |
 | Gtr III
 |  E. E. E E. E. E   E. E. E  E  Q.
E|------------------|-------------------------|
B|------------------|-------------------------|
G|--3--3--3-3--3--3-|-------------------------|
D|--3--3--3-3--3--3-|-6--6--6--6--------------|
A|--1--1--1-1--1--1-|-6--6--6--6--------------|
D|------------------|-6--6--6--6--------------|


   C#5                B5
                      ~~          ~
    E. E. E E. E. E   H       E E Q
E|------------------|-----------------|
B|-/9--9--9-9--7--5-|-7-------4-5-7---|
G|------------------|-----------------|
D|------------------|-----------------|
A|------------------|-----------------|
D|------------------|-----------------|
 |
 |                    ~~          ~
 |  E. E. E E. E. E   H       E E Q
E|------------------|-----------------|
B|------------------|-----------------|
G|-/9--9--9-9--8--6-|-8-------4-6-8---|
D|------------------|-----------------|
A|------------------|-----------------|
D|------------------|-----------------|
 |
 |  E. E. E E. E. E   E. E. E E E E E
E|------------------|-----------------|
B|------------------|-----------------|
G|--6--6--6-6--6--6-|-4--4--4-4-4-4-4-|
D|--6--6--6-6--6--6-|-4--4--4-4-4-4-4-|
A|--4--4--4-4--4--4-|-2--2--2-2-2-2-2-|
D|------------------|-----------------|


   D#5                      G#5
     E.  E.  E  E.  E.  E    Q        +Q     E     +E   Q
E|------------------------|-------------------------------------|
B|-/11--11--11-11--12--14-|-14b16----(14)---14b16r(14)-14-------|
G|------------------------|-------------------------------------|
D|------------------------|-------------------------------------|
A|------------------------|-------------------------------------|
D|------------------------|-------------------------------------|
 |
 |                           ~~~~~
 |   E.  E.  E  E.  E.  E    H               E      E   E  +E
E|------------------------|-------------------------------------|
B|------------------------|-------------------------------------|
G|--11--11--11-11---9---8-|-------------------------------------|
D|------------------------|--9---------------9-----11--13-(13)\-|
A|------------------------|-------------------------------------|
D|------------------------|-------------------------------------|
 |
 |   E.  E.  E  E.  E.  E    E.   E.      E  E      E   E   E
E|------------------------|-------------------------------------|
B|------------------------|-------------------------------------|
G|---8---8---8--8---8---8-|-------------------------------------|
D|---8---8---8--8---8---8-|--6----6-------6--6------6---6---6---|
A|---6---6---6--6---6---6-|--6----6-------6--6------6---6---6---|
D|------------------------|--6----6-------6--6------6---6---6---|


   D#5                      G#5
     E.  E.  E  E.  E.  E    Q        +Q     E     +E    Q
E|------------------------|-------------------------------------|
B|-/11--11--11-11--12--14-|-14b16----(14)---14b16r(14)--14------|
G|------------------------|-------------------------------------|
D|------------------------|-------------------------------------|
A|------------------------|-------------------------------------|
D|------------------------|-------------------------------------|
 |
 |                           ~~~~~
 |   E.  E.  E  E.  E.  E    H               E     +E    E +E
E|------------------------|-------------------------------------|
B|------------------------|-------------------------------------|
G|--11--11--11-11---9---8-|-------------------------------------|
D|------------------------|--9---------------9-----(9)\-/9-(9)\-|
A|------------------------|-------------------------------------|
D|------------------------|-------------------------------------|
 |
 |   E.  E.  E  E.  E.  E    E.   E.      E  E      E    E  E
E|------------------------|-------------------------------------|
B|------------------------|-------------------------------------|
G|---8---8---8--8---8---8-|-------------------------------------|
D|---8---8---8--8---8---8-|--6----6-------6--6------6----6--6---|
A|---6---6---6--6---6---6-|--6----6-------6--6------6----6--6---|
D|------------------------|--6----6-------6--6------6----6--6---|


   A5
                                                ~~~~
     Q.      +E     Q    +E    S  S    Q       +H.
E|----------------------------------|--------------------------------||
B|-/14------(14)\-/16---(16)\-14-16-|-16b17---(16)-------------------||
G|----------------------------------|--------------------------------||
D|----------------------------------|--------------------------------||
A|----------------------------------|--------------------------------||
D|----------------------------------|--------------------------------||
 |
 |                                              ~~~~
 |   Q.      +E     Q    +E    S  S    Q       +H.
E|----------------------------------|--------------------------------||
B|----------------------------------|--------------------------------||
G|-/14------(14)\-/16---(16)\-14-16-|-16b18---(16)-------------------||
D|----------------------------------|--------------------------------||
A|----------------------------------|--------------------------------||
D|----------------------------------|--------------------------------||
 |
 |   PM------------------------------------------------------------|
 |   E  E E   E     E E   E    E       E    E   E  E S S S S S S S S
E|----------------------------------|--------------------------------||
B|----------------------------------|--------------------------------||
G|----------------------------------|--------------------------------||
D|----------------------------------|--------------------------------||
A|---7--7-7---7-----7-7---7----7----|--7----7---7--7-7-7-7-7-7-7-7-7-||
E|---7--7-7---7-----7-7---7----7----|--7----7---7--7-7-7-7-7-7-7-7-7-||
 
 
[Guitar Break]

   D5
    S  S  S  S  S   S  S  S  S  S  S  S  S  S  S  S
E|--------------------------------------------------|
B|------------------------8-10--8-10-11-10--8-------|
G|-----------9-10---9-10----------------------10--9-|
D|-12-10-12-----------------------------------------|
A|--------------------------------------------------|
D|--------------------------------------------------|
 |
 |  S  S  S  S  S   S  S  S  S  S  S  S  S  S  S  S
E|--------------------------------------------------|
B|-------------10-----10-11-13-11-13s15-13-11-10----|
G|-10--9-10-12-----12----------------------------12-|
D|--------------------------------------------------|
A|--------------------------------------------------|
D|--------------------------------------------------|
 |
 |  q           H.
E|--------------------------------------------------|
B|--------------------------------------------------|
G|--------------------------------------------------|
D|--0-----------------------------------------------|
A|--0-----------------------------------------------|
D|--0-----------------------------------------------|


    S  S  S  S  S   S  S  S  S  S  S  S  S  S  S  S
E|--------------------------------------------------|
B|------------------------8-10--8-10-11-10--8-------|
G|-----------9-10---9-10----------------------10--9-|
D|-12-10-12-----------------------------------------|
A|--------------------------------------------------|
D|--------------------------------------------------|
 |
 |  S  S  S  S  S   S  S  S  S  S  S  S  S  S  S  S
E|--------------------------------------------------|
B|-------------10-----10-11-13-11-13s15-13-11-10----|
G|-10--9-10-12-----12----------------------------12-|
D|--------------------------------------------------|
A|--------------------------------------------------|
D|--------------------------------------------------|
 |
 |  q           H.
E|--------------------------------------------------|
B|--------------------------------------------------|
G|--------------------------------------------------|
D|--0-----------------------------------------------|
A|--0-----------------------------------------------|
D|--0-----------------------------------------------|


   F#5
    S  S  S  S  S   S  S  S  S  S  S  S  S  S  S  S
E|--------------------------------------------------|
B|-----------------------12-14-12-14-15-14-12-------|
G|----------13-14--13-14----------------------14-13-|
D|-16-14-16-----------------------------------------|
A|--------------------------------------------------|
D|--------------------------------------------------|
 |
 |  S  S  S  S  S   S  S  S  S  S  S  S  S  S  S  S
E|--------------------------------------------------|
B|-------------14-----14-15-17-15-17s19-17-15-14----|
G|-14-13-14-16-----16----------------------------16-|
D|--------------------------------------------------|
A|--------------------------------------------------|
D|--------------------------------------------------|
 |
 |  q           H.
E|--------------------------------------------------|
B|--------------------------------------------------|
G|--------------------------------------------------|
D|--4-----------------------------------------------|
A|--4-----------------------------------------------|
D|--4-----------------------------------------------|


    S  S  S  S  S  S  S  S  S   S  S  S  S  S  S  S
E|---------------------------------------------------|
B|----------------------12-14--12-14-15-14-12--------|
G|----------13-14-13-14-----------------------14-13--|
D|-16-14-16------------------------------------------|
A|---------------------------------------------------|
D|---------------------------------------------------|
 |
 |  S  S  S  S  S  S  S  S  S   S  S  S  S  S  S  S
E|---------------------------------------------------|
B|-------------14----14-15-17--15-17s19-17-15-14-----|
G|-14-13-14-16----16-----------------------------16--|
D|---------------------------------------------------|
A|---------------------------------------------------|
D|---------------------------------------------------|
 |
 |                                 PM------------|
 |  H                      +E      S  S  S  S  S  S
E|---------------------------------------------------|
B|---------------------------------------------------|
G|---------------------------------------------------|
D|--4----------------------(4)-----------------------|
A|--4----------------------(4)-----4--4--4--4--4--4--|
E|--4----------------------(4)-----4--4--4--4--4--4--|
 
 
   D5
    S  S  S  S  S  S  S  S  S  S  S  S  S  S  S  S
E|-------------------------------------------------|
B|-----------------------8-10--8-10-11-10--8-------|
G|-----------9-10--9-10----------------------10--9-|
D|-12-10-12----------------------------------------|
A|-------------------------------------------------|
D|-------------------------------------------------|
 |
 |  S  S  S  S  S  S  S  S  S  S  S  S  S  S  S  S
E|-------------------------------------------------|
B|-------------10----10-11-13-11-13s15-13-11-10----|
G|-10--9-10-12----12----------------------------12-|
D|-------------------------------------------------|
A|-------------------------------------------------|
D|-------------------------------------------------|
 |
 |  PM----------------------------------------------
 |  S  S  S  S  S  S  S  S  S  S  S  S  S  S  S  S
E|-------------------------------------------------|
B|-------------------------------------------------|
G|-------------------------------------------------|
D|-------------------------------------------------|
A|--0--0--0--0--0--0--0--0--0--0--0--0--0--0--0--0-|
D|--0--0--0--0--0--0--0--0--0--0--0--0--0--0--0--0-|


    S  S  S  S  S  S  S  S  S  S  S  S  S  S  S  S
E|-------------------------------------------------|
B|-----------------------8-10--8-10-11-10--8-------|
G|-----------9-10--9-10----------------------10--9-|
D|-12-10-12----------------------------------------|
A|-------------------------------------------------|
D|-------------------------------------------------|
 |
 |  S  S  S  S  S  S  S  S  S  S  S  S  S  S  S  S
E|-------------------------------------------------|
B|-------------10----10-11-13-11-13s15-13-11-10----|
G|-10--9-10-12----12----------------------------12-|
D|-------------------------------------------------|
A|-------------------------------------------------|
D|-------------------------------------------------|
 |
 |----------------------------------------------|
 |  S  S  S  S  S  S  S  S  S  S  S  S  S  S  S  S
E|-------------------------------------------------|
B|-------------------------------------------------|
G|-------------------------------------------------|
D|-------------------------------------------------|
A|--0--0--0--0--0--0--0--0--0--0--0--0--0--0--0--0-|
E|--0--0--0--0--0--0--0--0--0--0--0--0--0--0--0--0-|
 
 
   F#5
    S  S  S  S  S  S  S  S  S  S  S  S  S  S  S  S
E|-------------------------------------------------|
B|----------------------12-14-12-14-15-14-12-------|
G|----------13-14-13-14----------------------14-13-|
D|-16-14-16----------------------------------------|
A|-------------------------------------------------|
D|-------------------------------------------------|
 |
 |  S  S  S  S  S  S  S  S  S  S  S  S  S  S  S  S
E|-------------------------------------------------|
B|-------------14----14-15-17-15-17s19-17-15-14----|
G|-14-13-14-16----16----------------------------16-|
D|-------------------------------------------------|
A|-------------------------------------------------|
D|-------------------------------------------------|
 |
 |  PM----------------------------------------------
 |  S  S  S  S  S  S  S  S  S  S  S  S  S  S  S  S
E|-------------------------------------------------|
B|-------------------------------------------------|
G|-------------------------------------------------|
D|-------------------------------------------------|
A|--4--4--4--4--4--4--4--4--4--4--4--4--4--4--4--4-|
D|--4--4--4--4--4--4--4--4--4--4--4--4--4--4--4--4-|


    S  S  S  S  S  S  S  S  S  S  S  S  S  S  S  S
E|--------------------------------------------------||
B|----------------------12-14-12-14-15-14-12--------||
G|----------13-14-13-14----------------------14-13--||
D|-16-14-16-----------------------------------------||
A|--------------------------------------------------||
D|--------------------------------------------------||
 |
 |  S  S  S  S  S  S  S  S  S  S  S  S  S  S  S  S
E|--------------------------------------------------||
B|-------------14----14-15-17-15-17s19-17-15-14-----||
G|-14-13-14-16----16----------------------------16--||
D|--------------------------------------------------||
A|--------------------------------------------------||
D|--------------------------------------------------||
 |
 |----------------------------------------------|
 |  S  S  S  S  S  S  S  S  S  S  S  S  S  S  S  S
E|--------------------------------------------------||
B|--------------------------------------------------||
G|--------------------------------------------------||
D|--------------------------------------------------||
A|--4--4--4--4--4--4--4--4--4--4--4--4--4--4--4--4--||
E|--4--4--4--4--4--4--4--4--4--4--4--4--4--4--4--4--||
 
 
 [Bridge]

   D5                      Db5
    S  S  S  S  S  S  S  S  S  S  S  S  S  S  S  S
E|-17-------17-20-------17-15-------15-18-17-15----|
B|-------18----------18----------17-------------17-|
G|----19----------19----------17-------------------|
D|-------------------------------------------------|
A|-------------------------------------------------|
D|-------------------------------------------------|
 |
 |  S  S  S  S  S  S  S  S  S  S  S  S  S  S  S  S
E|-------------------------------------------------|
B|-18-------18-22-------18-17-------17-20-18-17----|
G|-------19----------19----------18-------------18-|
D|----19----------19----------19-------------------|
A|-------------------------------------------------|
D|-------------------------------------------------|
 |
 |  q           q           q           q
E|-------------------------------------------------|
B|-------------------------------------------------|
G|--7-----------------------6----------------------|
D|--7-----------------------6----------------------|
A|--5-----------------------4----------------------|
D|-------------------------------------------------|


   D5    Bb5   A5    G5 F5 E5 D5
    E  E  E  E  E  E  S  S  S  S    E  +E   H.
E|-------------------------------|----------------||
B|-18----15----14----------------|----------------||
G|----18----15----14-15-14-12--9-|-10-(10)\-------||
D|-------------------------------|----------------||
A|-------------------------------|----------------||
D|-------------------------------|----------------||
 |
 |  E  E  E  E  E  E  S  S  S  S    E  +E   H.
E|-------------------------------|----------------||
B|-------------------------------|----------------||
G|-19----15----14----------------|----------------||
D|----19----17----15-17-15-14-11-|-12-(12)\-------||
A|-------------------------------|----------------||
D|-------------------------------|----------------||
|
 |  q     q     q     S  S  S  S    q       H.
E|-------------------------------|----------------||
B|-------------------------------|----------------||
G|--7-----3-----2----------------|----------------||
D|--7-----3-----2-----5--3--2--0-|--0-------0-----||
A|--5-----1-----0-----5--3--2--0-|--0-------0-----||
D|--------------------5--3--2--0-|--0-------0-----||


[Breakdown Chorus]

   Dm                           Fsus2/C      C
   Gtr I
                                 <
   W                             Q.     S  S  Q    Q
E|----------------------------|------------------/12-----|
B|----------------------------|-13-----11-10-------------|
G|----------------------------|--------------12----------|
D|----------------------------|--------------------------|
A|----------------------------|--------------------------|
D|----------------------------|--------------------------|
 |
 | Gtr II
 |                               <
 | W                             Q.     S  S  Q    Q
E|----------------------------|-------------------/8-----|
B|----------------------------|-10------8--6--5----------|
G|----------------------------|--------------------------|
D|----------------------------|--------------------------|
A|----------------------------|--------------------------|
D|----------------------------|--------------------------|
 |
 | Gtr VI
 | E. S S S E +S  S S S E S S    Q   E  S  S  Q    E S S
E|----------------------------|--------------------------|
B|-6--6-x-x-6-(6)-6-x-x-6-x-x-|--1---1--x--x--1----1-x-x-|
G|-7--7-x-x-7-(7)-7-x-x-7-x-x-|--0---0--x--x--0----0-x-x-|
D|-7--7-x-x-7-(7)-7-x-x-7-x-x-|--3---3--x--x--2----2-x-x-|
A|-5--5-x-x-5-(5)-5-x-x-5-x-x-|--3---3--x--x--3----3-x-x-|
D|----------------------------|--------------------------|


   Bb                                 Fsus2/C      C
    Q.         E  +E     E    Q        Q.     S  S  S  S  S  S  Q
E|-10--------/13-(13)---12---10-----|--------------10------------------||
B|----------------------------------|-13-----11-13----13-11-13---------||
G|----------------------------------|--------------------------12------||
D|----------------------------------|----------------------------------||
A|----------------------------------|----------------------------------||
D|----------------------------------|----------------------------------||
 |
 |  Q.         E  +E     E    Q        Q.     S  S  S  S  S  S  Q
E|--6--------/10-(10)----8----6-----|--5---------5--6--5-----5---------||
B|----------------------------------|---------8-----------8-----5------||
G|----------------------------------|----------------------------------||
D|----------------------------------|----------------------------------||
A|----------------------------------|----------------------------------||
D|----------------------------------|----------------------------------||
 |
 |  E. S S S   E  +S  S  S S  E S S    Q   E  S  S  Q           E S S
E|----------------------------------|----------------------------------||
B|--3--3-x-x---3--(3)-3--x-x--3-x-x-|--1---1--x--x--1-----------1-x-x--||
G|--3--3-x-x---3--(3)-3--x-x--3-x-x-|--0---0--x--x--0-----------0-x-x--||
D|--3--3-x-x---3--(3)-3--x-x--3-x-x-|--3---3--x--x--2-----------2-x-x--||
A|--1--1-x-x---1--(1)-1--x-x--1-x-x-|--3---3--x--x--3-----------3-x-x--||
D|----------------------------------|----------------------------------||


[Chorus]    
  
    D5                         F5            C/E
     Gtr I
      H        +E   E  +E   E    Q.      S  S  Q     Q
E||---------------------------|--------------------/12---|
B||o-10-------(10)---------10-|-13------11-10------------|
G||----------------10-(10)----|---------------12---------|
D||---------------------------|--------------------------|
A||o--------------------------|--------------------------|
D||---------------------------|--------------------------|
 |
 |   Gtr II
 |    H        +E   E  +E   E    Q.      S  S  Q     Q
E||---------------------------|---------------------/8---|
B||o--6--------(6)----------6-|-10-------8--6--5---------|
G||-----------------7--(7)----|--------------------------|
D||---------------------------|--------------------------|
A||o--------------------------|--------------------------|
D||---------------------------|--------------------------|
 |
 |   Gtr III
 |    E E E E  +E   E   E   E    E  E E  E     E E   E E
E||---------------------------|--------------------------|
B||o--------------------------|--------------------------|
G||---------------------------|--------------------------|
D||---0-0-0-0--(0)--0---0---0-|--3--3-3--3-----2-2---2-2-|
A||o--0-0-0-0--(0)--0---0---0-|--3--3-3--3-----3-3---3-3-|
D||---0-0-0-0--(0)--0---0---0-|--3--3-3--3-----2-2---2-2-|


   Bb5                        F5            C/E
    Q.       E  +E   E  Q      Q.      S  S  S  S  S  S  Q
E|-10------/13-(13)-12-10---|---------------10-----------------||
B|--------------------------|-13------11-13----13-11-13-------o||
G|--------------------------|---------------------------12-----||
D|--------------------------|----------------------------------||
A|--------------------------|---------------------------------o||
D|--------------------------|----------------------------------||
 |
 |  Q.       E  +E   E  Q      Q.      S  S  S  S  S  S  Q
E|--6------/10-(10)--8--6---|--5----------5--6--5-----5--------||
B|--------------------------|----------8-----------8-----5----o||
G|--------------------------|----------------------------------||
D|--------------------------|----------------------------------||
A|--------------------------|---------------------------------o||
D|--------------------------|----------------------------------||
 |
 |  E  E E   E  +E   E  E E    E  E E  E     E     E     E E
E|--------------------------|----------------------------------||
B|--------------------------|---------------------------------o||
G|--3--3-3---3--(3)--3--3-3-|----------------------------------||
D|--3--3-3---3--(3)--3--3-3-|--3--3-3--3-----2-----2-----2-2---||
A|--1--1-1---1--(1)--1--1-1-|--3--3-3--3-----3-----3-----3-3--o||
D|--------------------------|--3--3-3--3-----2-----2-----2-2---||


[Bridge]

     F5                  Ab5            Eb/G
     Gtrs I, II
     Q.     Q   Q    E    +E   E  +E  E +E  E +E   E
E||--------------------|-----------------------------|
B||o-6------9---8---13-|-(13)-11-(11)-8-(8)-9-(9)-14-|
G||--x------x---x----x-|-------x------x-----x------x-|
D||--3------6---5---10-|-(10)--8--(8)-5-(5)-6-(6)-11-|
A||o-------------------|-----------------------------|
D||--------------------|-----------------------------|
 |
 |   Gtr III
 |   E  E E E E E E  E     E   E   E  E  E  E  E   E
E||--------------------|-----------------------------|
B||o-------------------|-----------------------------|
G||--------------------|-----------------------------|
D||--3--3-3-3-3-3-3--3-|---6---6---6--6--5--5--5---5-|
A||o-3--3-3-3-3-3-3--3-|---6---6---6--6--6--6--6---6-|
D||--3--3-3-3-3-3-3--3-|---6---6---6--6--5--5--5---5-|


                   D.S.S. al Dbl. Coda
   Db5                  Ab5     Eb/G
    E  E  E E Q   E E   E E E E Q   Q
E|--------------------|------------------||
B|-14-13-11s9-9---9s8-|-8s9-9s4-4---4---o||
G|--x--x--x---x---x---|-x---x---x---x----||
D|-11-10--8s6-6---6s5-|-5s6-6s1-1---1----||
A|--------------------|-----------------o||
D|--------------------|------------------||
 |
 |  E  E  E E E E E E   E E E E E E E E
E|--------------------|------------------||
B|--------------------|-----------------o||
G|--6--6--6-6-6-6-6-6-|------------------||
D|--6--6--6-6-6-6-6-6-|-6-6-6-6-5-5-5-5--||
A|--4--4--4-4-4-4-4-4-|-6-6-6-6-6-6-6-6-o||
D|--------------------|-6-6-6-6-5-5-5-5--||


[Break]

   &&
   Dm                           C
   Gtrs I, II
   W                            +W
E|----------------------------|-----------------------------|
B|----------------------------|-----------------------------|
G|----------------------------|-----------------------------|
D|-0--------------------------|-(0)-------------------------|
A|-0--------------------------|-(0)-------------------------|
D|-0--------------------------|-(0)-------------------------|
 |
 | Gtr V
 | E. S S S E +S  S S S E S S    E. S S S E +S  S S S E S S
E|----------------------------|-----------------------------|
B|-6--6-x-x-6-(6)-6-x-x-6-x-x-|--5--5-x-x-5-(5)-5-x-x-5-x-x-|
G|-7--7-x-x-7-(7)-7-x-x-7-x-x-|--5--5-x-x-5-(5)-5-x-x-5-x-x-|
D|-7--7-x-x-7-(7)-7-x-x-7-x-x-|--5--5-x-x-5-(5)-5-x-x-5-x-x-|
A|-5--5-x-x-5-(5)-5-x-x-5-x-x-|--3--3-x-x-3-(3)-3-x-x-3-x-x-|
D|----------------------------|-----------------------------|


   Bbadd6                                              C
   +W                            +W
E|-----------------------------|-------------------------------|
B|-----------------------------|-------------------------------|
G|-----------------------------|-------------------------------|
D|-(0)-------------------------|-(0)---------------------------|
A|-(0)-------------------------|-(0)---------------------------|
D|-(0)-------------------------|-(0)---------------------------|
 |
 |  E. S S S E +S  S S S E S S    E  S S S S S S E S S E S S
E|-----------------------------|-------------------------------|
B|--3--3-x-x-3-(3)-3-x-x-3-x-x-|--3--3-3-3-3-3-3-3-x-x-5-x-x---|
G|--0--0-x-x-0-(0)-0-x-x-0-x-x-|--0--0-0-0-0-0-0-0-x-x-5-x-x---|
D|--3--3-x-x-3-(3)-3-x-x-3-x-x-|--3--3-3-3-3-3-3-3-x-x-5-x-x---|
A|--1--1-x-x-1-(1)-1-x-x-1-x-x-|--1--1-1-1-1-1-1-1-x-x-3-x-x---|
D|-----------------------------|-------------------------------|


   Dm                           C
   W                            +W
E|----------------------------|-----------------------------|
B|----------------------------|-----------------------------|
G|----------------------------|-----------------------------|
D|-0--------------------------|-(0)-------------------------|
A|-0--------------------------|-(0)-------------------------|
D|-0--------------------------|-(0)-------------------------|
 |
 | E. S S S E +S  S S S E S S    E. S S S E +S  S S S E S S
E|----------------------------|-----------------------------|
B|-6--6-x-x-6-(6)-6-x-x-6-x-x-|--5--5-x-x-5-(5)-5-x-x-5-x-x-|
G|-7--7-x-x-7-(7)-7-x-x-7-x-x-|--5--5-x-x-5-(5)-5-x-x-5-x-x-|
D|-7--7-x-x-7-(7)-7-x-x-7-x-x-|--5--5-x-x-5-(5)-5-x-x-5-x-x-|
A|-5--5-x-x-5-(5)-5-x-x-5-x-x-|--3--3-x-x-3-(3)-3-x-x-3-x-x-|
D|----------------------------|-----------------------------|


   Bbadd6                                   C
   +W                            +W
E|-----------------------------|----------------------||
B|-----------------------------|----------------------||
G|-----------------------------|----------------------||
D|-(0)-------------------------|-(0)------------------||
A|-(0)-------------------------|-(0)------------------||
D|-(0)-------------------------|-(0)------------------||
 |
 |  E. S S S E +S  S S S E S S    Q   E S S Q  E S S
E|-----------------------------|----------------------||
B|--3--3-x-x-3-(3)-3-x-x-3-x-x-|--3---3-x-x-5--5-x-x--||
G|--0--0-x-x-0-(0)-0-x-x-0-x-x-|--0---0-x-x-5--5-x-x--||
D|--3--3-x-x-3-(3)-3-x-x-3-x-x-|--3---3-x-x-5--5-x-x--||
A|--1--1-x-x-1-(1)-1-x-x-1-x-x-|--1---1-x-x-3--3-x-x--||
D|-----------------------------|----------------------||


[Interlude]

     Dm                                    C
     Gtrs IV, V
     E.    S   S  S  E  +S  S S S  E S S    E. S S S E +S  S S S E S S
E||--------------------------------------|-----------------------------|
B||o-6-----6---x--x--6--(6)-6-x-x--6-x-x-|--5--5-x-x-5-(5)-5-x-x-5-x-x-|
G||--7-----7---x--x--7--(7)-7-x-x--7-x-x-|--5--5-x-x-5-(5)-5-x-x-5-x-x-|
D||--7-----7---x--x--7--(7)-7-x-x--7-x-x-|--5--5-x-x-5-(5)-5-x-x-5-x-x-|
A||o-5-----5---x--x--5--(5)-5-x-x--5-x-x-|--3--3-x-x-3-(3)-3-x-x-3-x-x-|
D||--------------------------------------|-----------------------------|
 |
 |   Gtr VI
 |   S  E  S  +E     E  +Q         q        H.                   Q
E||-------10-(10)-----------------13-----|-12--------------------8-----|
B||o-------------------------------------|-----------------------------|
G||--7s10-----------10-(10)-------14-----|-12--------------------9-----|
D||--------------------------------------|-----------------------------|
A||o-------------------------------------|-----------------------------|
D||--------------------------------------|-----------------------------|


   Bbadd6                                            C
   E.  S S S  E  +S  S S S E S S   Q         E   S S  Q   E S S
E|-------------------------------|--------------------------------|
B|-3---3-x-x--3--(3)-3-x-x-3-x-x-|-3---------3---x-x--5---5-x-x---|
G|-0---0-x-x--0--(0)-0-x-x-0-x-x-|-0---------0---x-x--5---5-x-x---|
D|-3---3-x-x--3--(3)-3-x-x-3-x-x-|-3---------3---x-x--5---5-x-x---|
A|-1---1-x-x--1--(1)-1-x-x-1-x-x-|-1---------1---x-x--3---3-x-x---|
D|-------------------------------|--------------------------------|
 |
 | E.  S E    E  +H                S  E  S  +E   E    Q   Q
E|-8--10-----10-(10)-------------|------10-(10)----------12-------|
B|-------------------------------|--------------------------------|
G|-9--10-----10-(10)-------------|-7s10---------10---12-----------|
D|-------------------------------|--------------------------------|
A|-------------------------------|--------------------------------|
D|-------------------------------|--------------------------------|


   Dm                                   C
    E.  S   S  S  E  +S  S S S  E S S    E.  S   S  S  E  +S  S S S E S S
E|------------------------------------|-----------------------------------|
B|--6---6---x--x--6--(6)-6-x-x--6-x-x-|--5---5---x--x--5--(5)-5-x-x-5-x-x-|
G|--7---7---x--x--7--(7)-7-x-x--7-x-x-|--5---5---x--x--5--(5)-5-x-x-5-x-x-|
D|--7---7---x--x--7--(7)-7-x-x--7-x-x-|--5---5---x--x--5--(5)-5-x-x-5-x-x-|
A|--5---5---x--x--5--(5)-5-x-x--5-x-x-|--3---3---x--x--3--(3)-3-x-x-3-x-x-|
D|------------------------------------|-----------------------------------|
 |
 |  E.  S  +E     E  +Q         Q        E.  S  +E     E  +Q        q
E|-----13-(13)-----------------15-----|-12------------12-(12)-------8-----|
B|------------------------------------|-----13-(13)-----------------------|
G|-14------------14-(14)-------15-----|-----------------------------9-----|
D|------------------------------------|-----------------------------------|
A|------------------------------------|-----------------------------------|
D|------------------------------------|-----------------------------------|


   Bbadd6                                            C
   E.  S S S  E  +S  S S S E S S   Q         E   S S  Q   E S S  4x
E|-------------------------------|-------------------------------||
B|-3---3-x-x--3--(3)-3-x-x-3-x-x-|-3---------3---x-x--5---5-x-x-o||
G|-0---0-x-x--0--(0)-0-x-x-0-x-x-|-0---------0---x-x--5---5-x-x--||
D|-3---3-x-x--3--(3)-3-x-x-3-x-x-|-3---------3---x-x--5---5-x-x--||
A|-1---1-x-x--1--(1)-1-x-x-1-x-x-|-1---------1---x-x--3---3-x-x-o||
D|-------------------------------|-------------------------------||
 |
 | E.  S E    E  +H                S  E  S  +E   E    Q   Q      4x
E|-8--10-----10-(10)-------------|------10-(10)----------12------||
B|-------------------------------|------------------------------o||
G|-9--10-----10-(10)-------------|-7s10---------10---12----------||
D|-------------------------------|-------------------------------||
A|-------------------------------|------------------------------o||
D|-------------------------------|-------------------------------||


[Guitar Solo]

   Dm                                   C
   Gtr VI
   E.     S S S E   +S  S S S E   S S   E. S S S E +S  S S S E S S
E|------------------------------------|----------------------------|
B|-6------6-x-x-6---(6)-6-x-x-6---x-x-|-5--5-x-x-5-(5)-5-x-x-5-x-x-|
G|-7------7-x-x-7---(7)-7-x-x-7---x-x-|-5--5-x-x-5-(5)-5-x-x-5-x-x-|
D|-7------7-x-x-7---(7)-7-x-x-7---x-x-|-5--5-x-x-5-(5)-5-x-x-5-x-x-|
A|-5------5-x-x-5---(5)-5-x-x-5---x-x-|-3--3-x-x-3-(3)-3-x-x-3-x-x-|
D|------------------------------------|----------------------------|
 |
 | Gtr IV
 | S  S S S S S S S  S  S S S S S S S   E. S E   E +H
E|--------------5---------------------|----------8-(8)-------------|
B|-5--6-5---6-8---8--6--5---5-6-5-----|----------------------------|
G|--------7---------------7-------7-6-|-5--7s9---------------------|
D|------------------------------------|----------------------------|
A|------------------------------------|----------------------------|
D|------------------------------------|----------------------------|


   Bbadd6                                               C
   E.     S S S E   +S  S S S E   S S   Q       E   S S Q  E S S
E|------------------------------------|-----------------------------|
B|-3------3-x-x-3---(3)-3-x-x-3---x-x-|-3-------3---x-x-5--5-x-x----|
G|-0------0-x-x-0---(0)-0-x-x-0---x-x-|-0-------0---x-x-5--5-x-x----|
D|-3------3-x-x-3---(3)-3-x-x-3---x-x-|-3-------3---x-x-5--5-x-x----|
A|-1------1-x-x-1---(1)-1-x-x-1---x-x-|-1-------1---x-x-3--3-x-x----|
D|------------------------------------|-----------------------------|
 |
 | S  S S S S S S S  S  S S S S S S S   S S S S S S S S H
E|--------------------------5-6-5-6-5-|-----------------------------|
B|----------------5--6--5-6-----------|-8-6-5---6p5-----------------|
G|--------5-7-6-7---------------------|-------7-----7-6-5-----------|
D|-8--7-8-----------------------------|-----------------------------|
A|------------------------------------|-----------------------------|
D|------------------------------------|-----------------------------|


   Dm                                 C
   E.   S S S E   +S  S S S E   S S   E. S S S E +S  S S S E S S
E|----------------------------------|----------------------------|
B|-6----6-x-x-6---(6)-6-x-x-6---x-x-|-5--5-x-x-5-(5)-5-x-x-5-x-x-|
G|-7----7-x-x-7---(7)-7-x-x-7---x-x-|-5--5-x-x-5-(5)-5-x-x-5-x-x-|
D|-7----7-x-x-7---(7)-7-x-x-7---x-x-|-5--5-x-x-5-(5)-5-x-x-5-x-x-|
A|-5----5-x-x-5---(5)-5-x-x-5---x-x-|-3--3-x-x-3-(3)-3-x-x-3-x-x-|
D|----------------------------------|----------------------------|
 |
 | E  S S S S S S  S  S S S S S S S   E. S E   E +H
E|----5-8---5-----------------------|----------------------------|
B|--------6-----6-------------------|----------------------------|
G|------------7-------7-------------|----------5-(5)-------------|
D|-----------------7------7---------|----------------------------|
A|----------------------5-----7-5-4-|-3--5s7---------------------|
D|--------------------------7-------|----------------------------|


   Bbadd6                                 C
    E. S S S E +S  S S S E S S   Q  E S S Q  E S S
E|-----------------------------|---------------------|
B|--3--3-x-x-3-(3)-3-x-x-3-x-x-|-3--3-x-x-5--5-x-x---|
G|--0--0-x-x-0-(0)-0-x-x-0-x-x-|-0--0-x-x-5--5-x-x---|
D|--3--3-x-x-3-(3)-3-x-x-3-x-x-|-3--3-x-x-5--5-x-x---|
A|--1--1-x-x-1-(1)-1-x-x-1-x-x-|-1--1-x-x-3--3-x-x---|
D|-----------------------------|---------------------|
 |
 |  TP          TP               TP       TP
 |  H           H                H        H
E|-----------------------------|---------------------|
B|-/3-----------5--------------|-6--------8----------|
G|-/3-----------5--------------|-7--------9----------|
D|-----------------------------|---------------------|
A|-----------------------------|---------------------|
D|-----------------------------|---------------------|


   Dm                                      C
   Gtr VI
    E.     S S S   E   +S  S S S E   S S    E.       S  S  S  E    +S   S  S  S  E     S  S
E|---------------------------------------|--------------------------------------------------|
B|--6------6-x-x---6---(6)-6-x-x-6---x-x-|--5--------5--x--x--5----(5)--5--x--x--5-----x--x-|
G|--7------7-x-x---7---(7)-7-x-x-7---x-x-|--5--------5--x--x--5----(5)--5--x--x--5-----x--x-|
D|--7------7-x-x---7---(7)-7-x-x-7---x-x-|--5--------5--x--x--5----(5)--5--x--x--5-----x--x-|
A|--5------5-x-x---5---(5)-5-x-x-5---x-x-|--3--------3--x--x--3----(3)--3--x--x--3-----x--x-|
D|---------------------------------------|--------------------------------------------------|
 |
 | Gtr IV
 |  Q        Q          H                   W
E|---------------------------------------|--------------------------------------------------|
B|-10\-----------------------------------|--------------------------------------------------|
G|-10\-----------------------------------|--------------------------------------------------|
D|---------------------------------------|--------------------------------------------------|
A|---------------------------------------|--------------------------------------------------|
D|---------------------------------------|--------------------------------------------------|
 |
 | Gtr V
 |  S  S S S S T T S S  S  S S S S S S S    S  S  S  S  S  S  S  S  S   S  S  S  S  S  S  S
E|-----------5h8p5---5-------------8-----|----------------10-13s15-13--12----12-------------|
B|-----------------8-----------5-6---5-6-|-13s17-13----10-----------------13----13----13-14-|
G|--5------5------------7--5-7-----------|----------10-----------------------------14-------|
D|-------7-------------------------------|--------------------------------------------------|
A|-----8---------------------------------|--------------------------------------------------|
D|---------------------------------------|--------------------------------------------------|


   Bbadd6                                                                  C
  E. S S S  E    +S   S  S  S  E        S    S       Q       E  S S  Q              E        S    S
E|------------------------------------------------|----------------------------------------------------|
B|3--3-x-x--3----(3)--3--x--x--3--------x----x----|--3-------3--x-x--5--------------5--------x----x----|
G|0--0-x-x--0----(0)--0--x--x--0--------x----x----|--0-------0--x-x--5--------------5--------x----x----|
D|3--3-x-x--3----(3)--3--x--x--3--------x----x----|--3-------3--x-x--5--------------5--------x----x----|
A|1--1-x-x--1----(1)--1--x--x--1--------x----x----|--1-------1--x-x--3--------------3--------x----x----|
D|------------------------------------------------|----------------------------------------------------|
 |
 |  W                                                       W
E|------------------------------------------------|-----------------------------------------------------|
B|------------------------------------------------|-----------------------------------------------------|
G|------------------------------------------------|-----------------------------------------------------|
D|------------------------------------------------|-----------------------------------------------------|
A|------------------------------------------------|-----------------------------------------------------|
D|------------------------------------------------|-----------------------------------------------------|
|
|
|
|--------13-10-------------------------------------|---------------------------------10-13-10------------|
|-15-------------13-10-----------------------------|---------------------------10-13----------13-10------|
|----------------------12-12pb13r(12)-10--------10-|-12--10-(10)---------10-12------------------------12-|
|------------------------------------------12------|---------------10-12---------------------------------|
|--------------------------------------------------|-----------------------------------------------------|
|--------------------------------------------------|-----------------------------------------------------|


   Dm                                       C
    E. S S  S  E   +S   S  S S  E     S S   E. S  S  S    E  +S  S S S  E    S  S
E|----------------------------------------|---------------------------------------|
B|--6--6-x--x--6---(6)--6--x-x--6-----x-x-|-5--5--x--x----5--(5)-5-x-x--5----x--x-|
G|--7--7-x--x--7---(7)--7--x-x--7-----x-x-|-5--5--x--x----5--(5)-5-x-x--5----x--x-|
D|--7--7-x--x--7---(7)--7--x-x--7-----x-x-|-5--5--x--x----5--(5)-5-x-x--5----x--x-|
A|--5--5-x--x--5---(5)--5--x-x--5-----x-x-|-3--3--x--x----3--(3)-3-x-x--3----x--x-|
D|----------------------------------------|---------------------------------------|
|
 |  W                                       W
E|----------------------------------------|---------------------------------------|
B|----------------------------------------|---------------------------------------|
G|----------------------------------------|---------------------------------------|
D|----------------------------------------|---------------------------------------|
A|----------------------------------------|---------------------------------------|
D|----------------------------------------|---------------------------------------|
|
 |  ~~~
 |  Q    S  S  S S  S   S  S S  S  S  S S   Q     S  S    E  +Q         S  S S  S
E|---------------------------9-10-12-10-9-|-8----10p(8)-/12-(12)-------15-12---12-|
B|------------------------10--------------|---------------------------------------|
G|-10------------9-10--12-----------------|---------------------------------------|
D|---------11-12--------------------------|---------------------------------------|
A|----------------------------------------|---------------------------------------|
D|----------------------------------------|---------------------------------------|


   Bbadd6                                                         C
   E.        S  S  S  E   +S  S S S E   S S   Q        E  S   S   Q      E        S    S
E|------------------------------------------|--------------------------------------------------||
B|-3---------3--x--x--3---(3)-3-x-x-3---x-x-|-3--------3--x---x---5------5--------x----x-------||
G|-0---------0--x--x--0---(0)-0-x-x-0---x-x-|-0--------0--x---x---5------5--------x----x-------||
D|-3---------3--x--x--3---(3)-3-x-x-3---x-x-|-3--------3--x---x---5------5--------x----x-------||
A|-1---------1--x--x--1---(1)-1-x-x-1---x-x-|-1--------1--x---x---3------3--------x----x-------||
D|------------------------------------------|--------------------------------------------------||
|
 | W                                          W
E|---------------------------------|-----------------------------------------------------------||
B|---------------------------------|-----------------------------------------------------------||
G|---------------------------------|-----------------------------------------------------------||
D|---------------------------------|-----------------------------------------------------------||
A|---------------------------------|-----------------------------------------------------------||
D|---------------------------------|-----------------------------------------------------------||
|
|                                                        |--3--| |-3-|  |--3--|  |--3--|  |---3---|
| S   S  S  S  S  S  S S  S  S S S S S S S   S S S S +E  S S   S S S S  S  S  S  S  S  S  S  S    S
|----12-13-12-10----10----5----------------|-----------------------------------------------------10----||
|----------------13----------8-6-----8-6---|-------------------5-8-6-5-------10-13-11-10----11---------||
|--------------------------------7-5-----5-|---7-5-7-(7)---5--------------10-------------12------------||
|------------------------------------------|-------------7-------------12------------------------------||
|------------------------------------------|-----------------------------------------------------------||
|------------------------------------------|-----------------------------------------------------------||


[Outro]

   Dm                                                       C
    E.    S   S  S  E     +S   S   S  S  E     S  S    E.  S   S  S  E     +S   S   S  S  E    S S
E|--------------------------------------------------|----------------------------------------------|
B|--6-----6---x--x--6-----(6)--6---x--x--6-----x--x-|--5---5---x--x--5-----(5)--5---x--x--5----x-x-|
G|--7-----7---x--x--7-----(7)--7---x--x--7-----x--x-|--5---5---x--x--5-----(5)--5---x--x--5----x-x-|
D|--7-----7---x--x--7-----(7)--7---x--x--7-----x--x-|--5---5---x--x--5-----(5)--5---x--x--5----x-x-|
A|--5-----5---x--x--5-----(5)--5---x--x--5-----x--x-|--3---3---x--x--3-----(3)--3---x--x--3----x-x-|
D|--------------------------------------------------|----------------------------------------------|
|
 |  S     S  S  E.    S   S  S   E.    S  S  S  S    S   S S  E.     S   S  S   E.        S  S S S
E|-13----12-10-------13--12-10--------13-12-10-11-|-12--10-8--------12--10--8------------12-10-8-9-|
B|------------------------------------------------|------------------------------------------------|
G|------------------------------------------------|------------------------------------------------|
D|------------------------------------------------|------------------------------------------------|
A|------------------------------------------------|------------------------------------------------|
D|------------------------------------------------|------------------------------------------------|
|
 |  E.       S   S  S  E.      S   S  S  Q          E.       S   S  S  E.         S   S  S  Q
E|-12b13----17--13------------17--13-------------|----------15--12---------------15--12------------|
B|-----------------15----------------15----------|-----------------13-------------------13---------|
G|-----------------------------------------------|-------------------------------------------------|
D|-----------------------------------------------|-------------------------------------------------|
A|-----------------------------------------------|-------------------------------------------------|
D|-----------------------------------------------|-------------------------------------------------|


   Bbadd6                                                                     C
    E.   S   S  S  E    +S   S   S  S  E     S  S    Q        E     S S  Q           E     S S
E|------------------------------------------------|-----------------------------------------------|
B|--3----3---x--x--3----(3)--3---x--x--3-----x--x-|--3--------3-----x-x--5-----------5-----x-x----|
G|--0----0---x--x--0----(0)--0---x--x--0-----x--x-|--0--------0-----x-x--5-----------5-----x-x----|
D|--3----3---x--x--3----(3)--3---x--x--3-----x--x-|--3--------3-----x-x--5-----------5-----x-x----|
A|--1----1---x--x--1----(1)--1---x--x--1-----x--x-|--1--------1-----x-x--3-----------3-----x-x----|
D|------------------------------------------------|-----------------------------------------------|
|
 |  S  S S  E.        S  S  S   E.        S  S  S  S    S  S  S  S  S  S  S S  S  S  S  S  S  S  S S
E|-10--8-6-----------10--8--6------------10--8--6--8-|-10--8--6-----6--8-10---12-10--8-----8-10-12------|
B|---------------------------------------------------|-----------6----------------------8---------------|
G|---------------------------------------------------|--------------------------------------------------|
D|---------------------------------------------------|--------------------------------------------------|
A|---------------------------------------------------|--------------------------------------------------|
D|---------------------------------------------------|--------------------------------------------------|
|
 |  E.      S   S  S  E.        S   S  S  S  S  S  S    S  S  S  S  S  S  S S  S  S  S  S  S  S  S S
E|---------13--10--------------13--10----13-12-10-12-|-13-12-10----10-12-13---15-13-12----12-13-15------|
B|----------------11------------------11-------------|----------11---------------------13---------------|
G|---------------------------------------------------|--------------------------------------------------|
D|---------------------------------------------------|--------------------------------------------------|
A|---------------------------------------------------|--------------------------------------------------|
D|---------------------------------------------------|--------------------------------------------------|

     Dm                                                     C
      E.     S   S  S  E  +S   S   S  S  E     S  S    E.    S   S  S  E     +S   S   S  S  E    S S
E||-------------------------------------------------|------------------------------------------------|
B||o--6------6---x--x--6--(6)--6---x--x--6-----x--x-|--5-----5---x--x--5-----(5)--5---x--x--5----x-x-|
G||---7------7---x--x--7--(7)--7---x--x--7-----x--x-|--5-----5---x--x--5-----(5)--5---x--x--5----x-x-|
D||---7------7---x--x--7--(7)--7---x--x--7-----x--x-|--5-----5---x--x--5-----(5)--5---x--x--5----x-x-|
A||o--5------5---x--x--5--(5)--5---x--x--5-----x--x-|--3-----3---x--x--3-----(3)--3---x--x--3----x-x-|
D||-------------------------------------------------|------------------------------------------------|
|
 |    S   S  S  E.     S   S  S   E.     S  S  S  S    S   S S  E.     S   S  S   E.        S  S S S
E||--13--12-10--------13--12-10---------13-12-10-11-|-12--10-8--------12--10--8------------12-10-8-9-|
B||o------------------------------------------------|------------------------------------------------|
G||-------------------------------------------------|------------------------------------------------|
D||-------------------------------------------------|------------------------------------------------|
A||o------------------------------------------------|------------------------------------------------|
D||-------------------------------------------------|------------------------------------------------|
|
 |    E.     S   S  S  E.      S   S  S  Q             E.       S   S  S  E.         S   S  S  Q
E||---------17--13------------17--13----------------|----------15--12---------------15--12-----------|
B||o---------------15----------------15-------------|-----------------13-------------------13--------|
G||-------------------------------------------------|------------------------------------------------|
D||-------------------------------------------------|------------------------------------------------|
A||o------------------------------------------------|------------------------------------------------|
D||-------------------------------------------------|------------------------------------------------|

 ****
   Bbadd6                                                                     C
    E.   S   S  S  E    +S   S   S  S  E     S  S    Q        E     S S  Q           E     S S     3x
E|------------------------------------------------|------------------------------------------------||
B|--3----3---x--x--3----(3)--3---x--x--3-----x--x-|--3--------3-----x-x--5-----------5-----x-x----o||
G|--0----0---x--x--0----(0)--0---x--x--0-----x--x-|--0--------0-----x-x--5-----------5-----x-x-----||
D|--3----3---x--x--3----(3)--3---x--x--3-----x--x-|--3--------3-----x-x--5-----------5-----x-x-----||
A|--1----1---x--x--1----(1)--1---x--x--1-----x--x-|--1--------1-----x-x--3-----------3-----x-x----o||
D|------------------------------------------------|------------------------------------------------||
|
 |  S  S S  E.     S  S  S   E.     S  S  S  S    S  S  S  S  S  S  S S  S  S  S  S  S  S  S S     3x
E|-10--8-6--------10--8--6---------10--8--6--8-|-10--8--6-----6--8-10---12-10--8-----8-10-12-------||
B|----------------------------------------------|-----------6----------------------8---------------o||
G|----------------------------------------------|---------------------------------------------------||
D|----------------------------------------------|---------------------------------------------------||
A|----------------------------------------------|--------------------------------------------------o||
D|----------------------------------------------|---------------------------------------------------||
|
 |  E.   S   S  S  E.     S   S  S  S  S  S  S    S  S  S  S  S  S  S S  S  S  S  S  S  S  S S     3x
E|------13--10-----------13--10----13-12-10-12-|-13-12-10----10-12-13---15-13-12----12-13-15-------||
B|-------------11---------------11-------------|----------11---------------------13---------------o||
G|---------------------------------------------|---------------------------------------------------||
D|---------------------------------------------|---------------------------------------------------||
A|---------------------------------------------|--------------------------------------------------o||
D|---------------------------------------------|---------------------------------------------------||



Duration Legend
---------------
W - whole; H - half; Q - quarter; E - 8th; S - 16th; T - 32nd; X - 64th; a - acciaccatura
+ - note tied to previous; . - note dotted; .. - note double dotted
Uncapitalized letters represent notes that are staccato (1/2 duration)
Irregular groupings are notated above the duration line
Duration letters will always appear directly above the note/fret number it represents the
duration for.  Duration letters with no fret number below them represent rests.  Multi-
bar rests are notated in the form Wxn, where n is the number of bars to rest for.  Low
melody durations appear below the staff

Tablature Legend
----------------
 h   - hammer-on
 p   - pull-off
 b   - bend
 pb  - pre-bend
 r   - bend release (if no number after the r, then release immediately)
 /\  - slide into or out of (from/to "nowhere")
 s   - legato slide
 S   - shift slide
 - natural harmonic
[n]  - artificial harmonic
n(n) - tapped harmonic
 ~   - vibrato
 tr  - trill
 T   - tap
 TP  - trem. picking
 PM  - palm muting
\n/  - tremolo bar dip; n = amount to dip
 \n  - tremolo bar down
 n/  - tremolo bar up
/n\  - tremolo bar inverted dip
 =   - hold bend; also acts as connecting device for hammers/pulls
 <> - volume swell (louder/softer)
 x   - on rhythm slash represents muted slash
 o   - on rhythm slash represents single note slash

Misc Legend
-----------
 |  - bar
||  - double bar
||o - repeat start
o|| - repeat end
*|  - double bar (ending)
 :  - bar (freetime)
 $  - Segno
 &  - Coda
Tempo markers -  = BPM(8/16=s8/s16), where s8 = swing 8ths, s16 = swing 16ths
Suggest correction
comments
print report bad tab
37 comments total. Showing first comments. show 1 bad comment
0 reply
FedEx_Man 1,467 wrote on November 13 2005, 02:04 pm

this is the best song ever
i love the way it sounds like santana at the end thats my favorite part

+7 reply
synysterocks 10 wrote on December 17 2005, 12:32 pm

its called recording genius....bat country when they play that harmonized solo dont you hear that rhythm in the background!? its called recording

guest
You may want to rate the tab now too:
select rating
Wanna post a correction for this tab? Suggest correction