Oops, an error
Loading. Please wait.

Sidewinder tab

version 2
version 2
5,852 views 3 this week
no commentswrite comment
1 2 3 4 5
x 6
add to favorites
×
Save as Personal and add changes to this tab that will be seen only by you. Learn more ›
×
You can save this tab as Personal to edit and correct it or add notes. All changes will be seen only by you. Learn more »
launch autoscroll
font size
0
reset
how to read this tab
guitar tuner
edit
Autoscroll
slow
fast
+/-
esc
set tempo
stop
Song: Sidewinder
Artist: Avenged Sevenfold
Album: City Of Evil

By request, I tabbed this song. 

Standard is not a possible tuning for this song, but Drop D is very easy to 
tune to, it take  maybe 10 seconds.

Guitar One: Electric Guitar, Drop D tuning
Guitar Two: Electric Guitar, Drop D tuning
Guitar Three: Electric Guitar, Drop D tuning
Guitar Five: Acoustic Guitar, Drop D tuning
Guitar Six: Acoustic Guitar, Drop D tuning

...Guitar Four are the chords in the acoustic parts.



LET'S GET STARTED:



Around 120 BPM, 4/4 Times


*Intro* (Also the main riff)
-Fade in

| Guitar 1 [X2]
|---------------------------/12-10--/13--12-10----------10------------|
|-10-----10-13---11-10-------------------------13--11-13--13-11-13----|
|-----10---------------12-----------------------------------------12--|
|---------------------------------------------------------------------|
|---------------------------------------------------------------------|
|---------------------------------------------------------------------|
|                                                                  
|                                                                      
| Guitar 2 [X2]                                                          
|---------------------------/8--6---/10---8--6--5------5-6-5---5------|
|-6------6--10---8--6--5-----------------------------8-------8----5---|
|-----7---------------------------------------------------------------|
|---------------------------------------------------------------------|
|---------------------------------------------------------------------|
|---------------------------------------------------------------------| 

 
*Pre-Verse*


| Guitar 1 & 2 [X4]
|------------------------------------------------------|
|------------------------------------------------------|
|------------------------------------------------------|
|-0-------0--------------------------------------------|
|-0---0-0-0---0-0-0-0----0-0-0-0-0---0--0--0-0---------|
|-0---0-0-0---0-0-0-0----0-0-0-0-0---0--0--0-0---------|
|     . .     . . . .    . . . . .   .  .  . .
|
| Guitar 3 [X2 Enter on 3rd repeat of above]
|------------------------------------------------------|
|-8--11-----------------11-11-11-11--11-11--11-14------|
|-x--x---7---7-7-7---7--x--x--x--x---x--x---x--x-------|
|-5--8---x---x-x-x---x--8--8--8--8---8--8---8--11------|
|--------5---5-5-5---5---------------------------------|
|------------------------------------------------------|


*Verse 1*  -  Start Guitar 3 right here __________
                                                   \
                                                    \
| Guitar 1                                           \
|-10-10-------13-13-------17-17-------20b21--13-10---13--13-13b16r13-|
|-------10-10-------14-14-------17-17-------------10-----------------|
|--------------------------------------------------------------------|
|--------------------------------------------------------------------|
|--------------------------------------------------------------------|
|--------------------------------------------------------------------|
|                                                    
|
| Guitar 2
|-------------------------------------17b18--17-15-------------------|
|-------------------------------------------------17-15--15-15b18r15-|
|--------------------------------------------------------------------|
|--------------------------------------------------------------------|
|--------------------------------------------------------------------|
|--------------------------------------------------------------------|


| Guitar 3 [X2] 
|------------------------------------------------------------------|
|------------------------------------------------------------------|
|------------------------------------------------------------------|
|---7-----5---------------5---------7-----5----------------8-7-----|
|-----8-----7-----5/8-7------8-7-------8-----7-----5/8-7-------4---|
|-0-----7-----0-3-------6--------7-0-----7-----0-3-------6---------|


*Pre-Chorus*


| Guitar 1
|------------------------------------|-------------------|
|------------------------------------|-------------------|
|------------------------------------|-------------------|
|-8----8----7---7-----------8----7---|-8----8----7---7---|
|---10---10---8---8-7-4-5-7---10---8-|---10---10---8---8-|
|------------------------------------|-------------------|
|
|
| Guitar 2
|------------------------------------|-------------------|
|------------------------------------|-7----7----5---5---|
|------------------------------------|---8----8----7---7-|
|------------------------------------|-------------------|
|------------------------------------|-------------------|
|------------------------------------|-------------------|


| Guitar 1
|-------------------------------------5--\---|
|-------------------6--5--6--5--6--8---------|
|-------------7--6---------------------------|
|-7--6--7--8---------------------------------|
|--------------------------------------------|
|--------------------------------------------|
|
|
| Guitar 2
|--------------------------------------------|
|----------------------------------5--6--\---|
|-------------------7--6--7--6--7------------|
|----------5--8--7---------------------------|
|-8--7--8------------------------------------|
|--------------------------------------------|
 

*Chorus*


| Guitar 1 [X2]
|---------------------------/12-10--/13--12-10----------10------------|
|-10-----10-13---11-10-------------------------13--11-13--13-11-13----|
|-----10---------------12-----------------------------------------12--|
|---------------------------------------------------------------------|
|---------------------------------------------------------------------|
|---------------------------------------------------------------------|
|                                                                  
|                                                                      
| Guitar 2 [X2]                                                          
|---------------------------/8--6---/10---8--6--5------5-6-5---5------|
|-6------6--10---8--6--5-----------------------------8-------8----5---|
|-----7---------------------------------------------------------------|
|---------------------------------------------------------------------|
|---------------------------------------------------------------------|
|---------------------------------------------------------------------|
|
|
| Guitar 3 [X2]
|---------------------------------------------------------------------|
|---------------------------------------------------------------------|
|-------------------------------3----3-3-3--3-------------------------|
|-0---0-0-----3---3-----2---2---3----3-3-3--3--3-3-3-3--3--2-2-2-2--2-|
|-0---0-0-----3---3-----3---3---1----1-1-1--1--3-3-3-3--3--3-3-3-3--3-|
|-0---0-0-----3---3-----2---2------------------3-3-3-3--3--2-2-2-2--2-|


*Pre-Verse*


| Guitar 1 & 2 [X4]
|------------------------------------------------------|
|------------------------------------------------------|
|------------------------------------------------------|
|-0-------0--------------------------------------------|
|-0---0-0-0---0-0-0-0----0-0-0-0-0---0--0--0-0---------|
|-0---0-0-0---0-0-0-0----0-0-0-0-0---0--0--0-0---------|
|     . .     . . . .    . . . . .   .  .  . .
|
| Guitar 3 [X4]
|------------------------------------------------------|
|-8--11-----------------11-11-11-11--11-11--11-14------|
|-x--x---7---7-7-7---7--x--x--x--x---x--x---x--x-------|
|-5--8---x---x-x-x---x--8--8--8--8---8--8---8--11------|
|--------5---5-5-5---5---------------------------------|
|------------------------------------------------------|  


| Guitar 1
|-------------------|
|-------------------|
|-------------------|
|-------------------|
|-5--3--8-----------|
|----------7--8--7--|


*Verse 2*
- Change it up a bit this time  


| Guitar 1                                          
|-10-10-------13-13-------17-17-------20b21r20-|
|-------10-10-------14-14-------17-17----------|
|----------------------------------------------|
|----------------------------------------------|
|----------------------------------------------|
|----------------------------------------------|
|                                                    
|
| Guitar 2
|-------------------------------------17b18r17-|
|----------------------------------------------|
|----------------------------------------------|
|----------------------------------------------|
|----------------------------------------------|
|----------------------------------------------|


| Guitar 1
|-20b22---r20--------------------------------------------9---------|
|--------------------10------------------------10---11-------------|
|--------------10-12----12--10-12--10------------------------------|
|------------------------------------------------------------------|
|------------------------------------------------------------------|
|------------------------------------------------------------------|
|
|
| Guitar 2
|-17-----------------------------------------------------17--------|
|--------------15-17-18-17--15-------------------------------------|
|------------------------------15--14----------14---15-------------|
|------------------------------------------------------------------|
|------------------------------------------------------------------|
|------------------------------------------------------------------|
|
|
| Guitar 3  
|------------------------------------------------------------------|
|------------------------------------------------------------------|
|------------------------------------------------------------------|
|---7-----5---------------5---------7-----5----------------8-7-----|
|-----8-----7-----5/8-7------8-7-------8-----7-----5/8-7-------4---|
|-0-----7-----0-3-------6--------7-0-----7-----0-3-------6---------|


| Guitar 1
|-9b10---r9-----9---10---12--12b13---12-13-15-13-12-13-15-12-12-13-|
|------------------------------------------------------------------|
|------------------------------------------------------------------|
|------------------------------------------------------------------|
|------------------------------------------------------------------|
|------------------------------------------------------------------|
|
|
| Guitar 2
|------------------------16--16b15---16-17-18-17-16-17-18-17-16-17-|
|-17b18--r17---17---18---------------------------------------------|
|------------------------------------------------------------------|
|------------------------------------------------------------------|
|------------------------------------------------------------------|
|------------------------------------------------------------------|
|
|
| Guitar 3  
|------------------------------------------------------------------|
|------------------------------------------------------------------|
|------------------------------------------------------------------|
|---7-----5---------------5---------7-----5----------------8-7-----|
|-----8-----7-----5/8-7------8-7-------8-----7-----5/8-7-------4---|
|-0-----7-----0-3-------6--------7-0-----7-----0-3-------6---------|



*Pre-Chorus*


| Guitar 1
|------------------------------------|-------------------|
|------------------------------------|-------------------|
|------------------------------------|-------------------|
|-8----8----7---7-----------8----7---|-8----8----7---7---|
|---10---10---8---8-7-4-5-7---10---8-|---10---10---8---8-|
|------------------------------------|-------------------|
|
|
| Guitar 2
|------------------------------------|-------------------|
|------------------------------------|-7----7----5---5---|
|------------------------------------|---8----8----7---7-|
|------------------------------------|-------------------|
|------------------------------------|-------------------|
|------------------------------------|-------------------|


| Guitar 1
|-------------------------------------5--\---|
|-------------------6--5--6--5--6--8---------|
|-------------7--6---------------------------|
|-7--6--7--8---------------------------------|
|--------------------------------------------|
|--------------------------------------------|
|
|
| Guitar 2
|--------------------------------------------|
|----------------------------------5--6--\---|
|-------------------7--6--7--6--7------------|
|----------5--8--7---------------------------|
|-8--7--8------------------------------------|
|--------------------------------------------|
 

*Chorus*


| Guitar 1 [X2]
|---------------------------/12-10--/13--12-10----------10------------|
|-10-----10-13---11-10-------------------------13--11-13--13-11-13----|
|-----10---------------12-----------------------------------------12--|
|---------------------------------------------------------------------|
|---------------------------------------------------------------------|
|---------------------------------------------------------------------|
|                                                                  
|                                                                      
| Guitar 2 [X2]                                                          
|---------------------------/8--6---/10---8--6--5------5-6-5---5------|
|-6------6--10---8--6--5-----------------------------8-------8----5---|
|-----7---------------------------------------------------------------|
|---------------------------------------------------------------------|
|---------------------------------------------------------------------|
|---------------------------------------------------------------------|
|
|
| Guitar 3 [X2]
|---------------------------------------------------------------------|
|---------------------------------------------------------------------|
|-------------------------------3----3-3-3--3-------------------------|
|-0---0-0-----3---3-----2---2---3----3-3-3--3--3-3-3-3--3--2-2-2-2--2-|
|-0---0-0-----3---3-----3---3---1----1-1-1--1--3-3-3-3--3--3-3-3-3--3-|
|-0---0-0-----3---3-----2---2------------------3-3-3-3--3--2-2-2-2--2-|


*Interlude*


| Guitar 1 & 2 [X2]
|-----------------------------------------------------------------|
|-----------------------------------------------------------------|
|---------------------------------6-6-6-6-6-6-6-6-----------------|
|-3-3-3-3-3-3-3-3-6-6-6-6-5-5-5-5-6-6-6-6-6-6-6-6-6-6-6-6-6-6-6-6-|
|-3-3-3-3-3-3-3-3-6-6-6-6-6-6-6-6-4-4-4-4-4-4-4-4-6-6-6-6-5-5-5-5-|
|-3-3-3-3-3-3-3-3-6-6-6-6-5-5-5-5-----------------6-6-6-6-6-6-6-6-|
|
|
| Guitar 3 [X2]
|-----------------------------------------------------------------|
|-6---9---8---13----11--8---9--14--14-13-119-9-9-8-8-/9--9-\4-4-4-|
|-x---x---x---x-----x---x---x--x---x--x--x-x-x-x-x-x--x--x--x-x-x-|
|-3---6---5---10----8---5---6--11--11-10-8-6-6-6-5-5-/6--6-\1-1-1-|
|-----------------------------------------------------------------|
|-----------------------------------------------------------------|

(Change in flow but not tempo)

| Guitar 1 & 2
|---------------------------------------------------------------------|
|---------------------------------------------------------------------|
|-8------------------------8---\---4----------------------4-----------|
|-8------------------------8---\---4----------------------4-----------|
|-6------------------------6---\---2----------------------2-----------|
|---------------------------------------------------------------------|
|
|
| Guitar 2
|-------------11----------------11----------------------11/14-11------|
|----------11----11----------11----12----------------12----------12---|
|-------11----------11----11----------11----------11----------------11|
|-----8----------------13----------------13----13---------------------|
|-6-9---------------------------------------14------------------------|
|---------------------------------------------------------------------|


| Guitar 1 [Repeat the bar above then this one again]
|----------------------------------------------------------------|
|----------------------------------------------------------------|
|----------------------------------------------------------------|
|-3------------------------3---\---1----------------1------------|
|-3------------------------3---\---1----------------1------------|
|-3------------------------3---\---1----------------1------------|
|
|
| Guitar 2 [Repeat the bar above then this one again]
|-16-13----------------13/16-13-------14-13-11-------------------|
|-------13----------13----------13-------------12-11\8-11-10-8---|
|----------13----13----------------13--------------------------9-| 
|-------------15-------------------------------------------------|
|----------------------------------------------------------------|
|----------------------------------------------------------------|


*Bridge*


| Guitar 1 & 2 [X2]       [X2]
|-----------------------||-----------------------|
|-----------------------||-----------------------|
|-----------------------||-----------------------|
|-------------0---------||-------------8---------|
|-0-0-0-0-0-0-0---------||-8-8-8-8-8-8-8---------|
|-0-0-0-0-0-0-0---------||-8-8-8-8-8-8-8---------|
| . . . . . .               . . . . . .
|
| Guitar 3 [X2]           [X2]
|-----------------------||-----------------------|
|-----------------------||-----------------------|
|-7---9---10/12---10-9--||-7---9---10/12---10-9--|
|-x---x---x--x----x--x--||-x---x---x--x----x--x--|
|-5---7---8-/10---8--7--||-5---7---8-/10---8--7--|
|-----------------------||-----------------------|


| Guitar 1 & 2 [X2]
|-----------------------||-----------------------|
|-----------------------||-----------------------|
|-----------------------||-----------------------|
|-------------------10--||-------------0---------|
|-10-10-10-10-10-10-10--||-0-0-0-0-0-0-0---------|
|-10-10-10-10-10-10-10--||-0-0-0-0-0-0-0---------|
| .  .  .  .  .  .         . . . . . .
|
| Guitar 3 [X2]
|-----------------------||-----------------------|
|-----------------------||-----------------------|
|-7---9---10-12---10-9--||-7---9---10-12---10-9--|
|-x---x---x--x----x--x--||-x---x---x--x----x--x--|
|-5---7---8--10---8--7--||-5---7---8--10---8--7--|
|-----------------------||-----------------------|


*Interlude 2*


| Guitar 1 & 2 
|------------------------------------------------------------------|
|------------------------------------------------------------------|
|------------------------------------------------------------------|
|-3---------7---------7-----10--------10--------10----10--------10-|
|-5-5-5-5-5-5-5-5-5-5-5-5-5-7-7-7-7-7-7-7-7-7-7-7-7-7-8-8-8-8-8-8--|
|------------------------------------------------------------------|
    . . . .   . . . .   . .   . . . .   . . . .   . .   . . . .

| Guitar 1 & 2
|-------------------------------------------------------------------|
|-------------------------------------------------------------------|
|-------------------------------------------------------------------|
|---------10----10--------7---------7-----6---------6---------6-----|
|-8-8-8-8-8-8-8-8-8-8-8-8-8-8-8-8-8-8-8-8-4-4-4-4-4-4-4-4-4-4-4-4-4-|
|-------------------------------------------------------------------|
  . . . .   . .

| Guitar 1
|--------------------------------------------------------------|
|-6--6--6--6--4--2--4---/5\-/7\-9--9--9--9--7--5--7---4--5--7--|
|--------------------------------------------------------------|
|--------------------------------------------------------------|
|--------------------------------------------------------------|
|--------------------------------------------------------------|
|
|
| Guitar 2
|--------------------------------------------------------------|
|--------------------------------------------------------------|
|-6--6--6--6--5--3--5---/6\-/8\-9--9--9--9--8--6--8---4--6--8--|
|--------------------------------------------------------------|
|--------------------------------------------------------------|
|--------------------------------------------------------------|
|
|
| Guitar 3
|--------------------------------------------------------------|
|--------------------------------------------------------------|
|-3--3--3--3--3--3---------------6-6--6--6--6--6--6--6-4-4-4-4-|
|-3--3--3--3--3--3--6--6--6-6-6--6-6--6--6--6--6--6--6-4-4-4-4-|
|-1--1--1--1--1--1--6--6--6-6-6--4-4--4--4--4--4--4--4-2-2-2-2-|
|-------------------6--6--6-6-6--------------------------------|


| Guitar 1 [X2]
|-------------------------------------|
|-11-11-11-11-12-14-14b16r14-14b16r14-|
|-------------------------------------|
|-------------------------------------|
|-------------------------------------|
|-------------------------------------|
|
|
| Guitar 2 [X2]
|-------------------------------------|
|-------------------------------------|
|-11-11-11-11-9--8--------------------|
|-------------------9----9--9---------|
|-------------------------------------|
|-------------------------------------|
|
|
| Guitar 3 [X2]
|-------------------------------------|
|-------------------------------------|
|-8--8--8--8--8-8-8-------------------|
|-8--8--8--8--8-8-8-6-6--6-6--6-6-----|
|-6--6--6--6--6-6-6-6-6--6-6--6-6-----|
|-------------------6-6--6-6--6-6-----|


| Guitar 1
|----------------------------------------|
|-/14----\--/16-----\---12--14-----------|
|-------------------------------16b18r16-|
|----------------------------------------|
|----------------------------------------|
|----------------------------------------|
|
|
| Guitar 2
|----------------------------------------|
|-/14----\--/16-----\---12--14--16b18r16-|
|----------------------------------------|
|----------------------------------------|
|----------------------------------------|
|----------------------------------------|
|
|
| Guitar 3
|----------------------------------------|
|----------------------------------------|
|----------------------------------------|
|----------------------------------------|
|-7-7-7-7-7-7-7-7-7-7-7-7--77777777------|
|-7-7-7-7-7-7-7-7-7-7-7-7--77777777------|
  . . . . . . . . . . . .  ........

*Break*


| Guitar 1 [X2]
|-------------------------------------------------|
|------------10----10-11-13-11-13/15-13-11-10-----|
|-10-9-10-12----12----------------------------12--|
|-------------------------------------------------|
|-------------------------------------------------|
|-------------------------------------------------|
|
|
| Guitar 2 [X2]
|-------------------------------------------------|
|---------------------8--10-8--10-11-10--8--------|
|----------9-10--9-10----------------------10--9--|
|-12-10-12----------------------------------------|
|-------------------------------------------------|
|-------------------------------------------------|
|
|
| Guitar 3 [X2]
|-------------------------------------------------|
|-------------------------------------------------|
|-------------------------------------------------|
|-0-----------------------------------------------|
|-0-----------------------------------------------|
|-0-----------------------------------------------|
  .
 
| Guitar 1 [X2]
|------------------------------------------------|
|-------------14----14-15-17-15-17/19-17-15-14----|
|-14-13-14-16----16----------------------------15-|
|-------------------------------------------------|
|-------------------------------------------------|
|-------------------------------------------------|
|
|
| Guitar 2 [X2]
|-------------------------------------------------|
|----------------------12-14-12-14-15-14-12-------|
|----------13-14-13-14----------------------14-13-|
|-16-14-16----------------------------------------|
|-------------------------------------------------|
|-------------------------------------------------|
|
|
| Guitar 3 [X2, second time ring out and play\ this]
|--------------------------------------------|----|
|--------------------------------------------|----|
|--------------------------------------------|----|
|-4-------------------------------------/-\-/-----|
|-4-----------------------------------4-4-4-4-4-4-|
|-4-----------------------------------4-4-4-4-4-4-|
  .                                   . . . . . .

| Guitar 1 [X2]
|-------------------------------------------------|
|------------10----10-11-13-11-13/15-13-11-10-----|
|-10-9-10-12----12----------------------------12--|
|-------------------------------------------------|
|-------------------------------------------------|
|-------------------------------------------------|
|
|
| Guitar 2 [X2]
|-------------------------------------------------|
|---------------------8--10-8--10-11-10--8--------|
|----------9-10--9-10----------------------10--9--|
|-12-10-12----------------------------------------|
|-------------------------------------------------|
|-------------------------------------------------|
|
|
| Guitar 3 [X2]
|-------------------------------------------------|
|-------------------------------------------------|
|-------------------------------------------------|
|-------------------------------------------------|
|-0--0--0--0--0--0--0--0--0--0--0--0--0--0--0--0--|
|-0--0--0--0--0--0--0--0--0--0--0--0--0--0--0--0--|
  .  .  .  .  .  .  .  .  .  .  .  .  .  .  .  .
 
| Guitar 1 [X2]
|------------------------------------------------|
|-------------14----14-15-17-15-17/19-17-15-14----|
|-14-13-14-16----16----------------------------15-|
|-------------------------------------------------|
|-------------------------------------------------|
|-------------------------------------------------|
|
|
| Guitar 2 [X2]
|-------------------------------------------------|
|----------------------12-14-12-14-15-14-12-------|
|----------13-14-13-14----------------------14-13-|
|-16-14-16----------------------------------------|
|-------------------------------------------------|
|-------------------------------------------------|
|
|
| Guitar 3 [X2]
|------------------------------------------------|
|------------------------------------------------|
|------------------------------------------------|
|------------------------------------------------|
|-4--4--4--4--4--4--4--4--4--4--4--4--4--4--4--4-|
|-4--4--4--4--4--4--4--4--4--4--4--4--4--4--4--4-|
  .  .  .  .  .  .  .  .  .  .  .  .  .  .  .  .

| Guitar 1
|-17-------17-20-------17-15-------15-18-17-15-----|
|-------18----------18----------17-------------17--|
|----18----------19----------17--------------------|
|--------------------------------------------------|
|--------------------------------------------------|
|--------------------------------------------------|
|
|
| Guitar 2
|--------------------------------------------------|
|-18-------18-22-------18-17-------17-20-18-17-----|
|-------19----------19----------18-------------18--|
|----19----------19----------19--------------------|
|--------------------------------------------------|
|--------------------------------------------------|
|
|
| Guitar 3
|--------------------------------------------------|
|--------------------------------------------------|
|-7--------------------------6---------------------|
|-7--------------------------6---------------------|
|-5--------------------------4---------------------|
|--------------------------------------------------|


| Guitar 1
|-------------------------------------------------|
|-18------15------14------------------------------|
|-----18------15------14--15-14-12----------------|
|----------------------------------14-15--\-------|
|-------------------------------------------------|
|-------------------------------------------------|
|
|
| Guitar 2
|-------------------------------------------------|
|-------------------------------------------------|
|-19------15------14------------------------------|
|-----19------17------15--17-15-14----------------|
|----------------------------------16-17--\-------|
|-------------------------------------------------|
|
|
| Guitar 3
|--------------------------------------------------|
|--------------------------------------------------|
|-7-------3-------2--------------------------------|
|-7-------3-------2-------5--3--2--1--0--------0---|
|-5-------1-------0-------5--3--2--1--0--------0---|
|-------------------------5--3--2--1--0--------0---|


*Acoustic Bridge*


Play the Main riff (fade in) along with:

| Guitar 4
|----------------------------------------------------------|
|-6--6-xx-6--6-xx-6-xx-1--1-xx-1--1-xx-3--3-xx-3--3-xx-3-xx| 
|-7--7-xx-7--7-xx-7-xx-0--0-xx-0--0-xx-3--3-xx-3--3-xx-3-xx|
|-7--7-xx-7--7-xx-7-xx-3--3-xx-3--3-xx-3--3-xx-3--3-xx-3-xx|
|-5--5-xx-5--5-xx-5-xx-3--3-xx-3--3-xx-1--1-xx-1--1-xx-1-xx|
|----------------------------------------------------------|


| Guitar 4
|-----------------|
|-1--1-xx-1--1-xx-|
|-0--0-xx-0--0-xx-|
|-3--3-xx-3--3-xx-|
|-3--3-xx-3--3-xx-|
|-----------------|


*Chorus*


| Guitar 1 [X2]
|---------------------------/12-10--/13--12-10----------10------------|
|-10-----10-13---11-10-------------------------13--11-13--13-11-13----|
|-----10---------------12-----------------------------------------12--|
|---------------------------------------------------------------------|
|---------------------------------------------------------------------|
|---------------------------------------------------------------------|
|                                                                  
|                                                                      
| Guitar 2 [X2]                                                          
|---------------------------/8--6---/10---8--6--5------5-6-5---5------|
|-6------6--10---8--6--5-----------------------------8-------8----5---|
|-----7---------------------------------------------------------------|
|---------------------------------------------------------------------|
|---------------------------------------------------------------------|
|---------------------------------------------------------------------|
|
|
| Guitar 3 [X2]
|---------------------------------------------------------------------|
|---------------------------------------------------------------------|
|-------------------------------3----3-3-3--3-------------------------|
|-0---0-0-----3---3-----2---2---3----3-3-3--3--3-3-3-3--3--2-2-2-2--2-|
|-0---0-0-----3---3-----3---3---1----1-1-1--1--3-3-3-3--3--3-3-3-3--3-|
|-0---0-0-----3---3-----2---2------------------3-3-3-3--3--2-2-2-2--2-|


*Interlude*


| Guitar 1 & 2 [X2]
|-----------------------------------------------------------------|
|-----------------------------------------------------------------|
|---------------------------------6-6-6-6-6-6-6-6-----------------|
|-3-3-3-3-3-3-3-3-6-6-6-6-5-5-5-5-6-6-6-6-6-6-6-6-6-6-6-6-6-6-6-6-|
|-3-3-3-3-3-3-3-3-6-6-6-6-6-6-6-6-4-4-4-4-4-4-4-4-6-6-6-6-5-5-5-5-|
|-3-3-3-3-3-3-3-3-6-6-6-6-5-5-5-5-----------------6-6-6-6-6-6-6-6-|
|
|
| Guitar 3 [X2]
|-----------------------------------------------------------------|
|-6---9---8---13----11--8---9--14--14-13-119-9-9-8-8-/9--9-\4-4-4-|
|-x---x---x---x-----x---x---x--x---x--x--x-x-x-x-x-x--x--x--x-x-x-|
|-3---6---5---10----8---5---6--11--11-10-8-6-6-6-5-5-/6--6-\1-1-1-|
|-----------------------------------------------------------------|
|-----------------------------------------------------------------|

(Change in flow but not tempo)

| Guitar 1 & 2
|---------------------------------------------------------------------|
|---------------------------------------------------------------------|
|-8------------------------8---\---4----------------------4-----------|
|-8------------------------8---\---4----------------------4-----------|
|-6------------------------6---\---2----------------------2-----------|
|---------------------------------------------------------------------|
|
|
| Guitar 2
|-------------11----------------11----------------------11/14-11------|
|----------11----11----------11----12----------------12----------12---|
|-------11----------11----11----------11----------11----------------11|
|-----8----------------13----------------13----13---------------------|
|-6-9---------------------------------------14------------------------|
|---------------------------------------------------------------------|


| Guitar 1 [Repeat the bar above then this one again]
|----------------------------------------------------------------|
|----------------------------------------------------------------|
|----------------------------------------------------------------|
|-3------------------------3---\---1----------------1------------|
|-3------------------------3---\---1----------------1------------|
|-3------------------------3---\---1----------------1------------|
|
|
| Guitar 2 [Repeat the bar above then this one again]
|-16-13----------------13/16-13-------14-13-11-------------------|
|-------13----------13----------13-------------12-11\8-11-10-8---|
|----------13----13----------------13--------------------------9-|  
|-------------15-------------------------------------------------|
|----------------------------------------------------------------|
|----------------------------------------------------------------|

ACOUSTIC MODE!!! From here on out, I'm going to put the riff being played 
and the chords above it (D, C, and A#). The strum/mute pattern is easy to 
catch on to (s s mm s s mm s mm).

Chords:

  D   D / C   C / A#  A# 
|-----1-------0-----------|
|-6---3---5---1---3---3---|
|-7---2---5---0---0---3---|
|-7---0---5---2---3---3---|
|-5-------3---3---1---1---|
|-------------------------|


*Acoustic Intro*

D, C, A#... D, C, A#...

*That next part in the song*

D                  C         A#                    C
|-----10-------13---12-----8--8--10--10-------10-------12-|
|---------------------------------------------------------|
|-/10----10----14---12-----9--9--10--10--7/10----10-12----|
|---------------------------------------------------------|
|---------------------------------------------------------|
|---------------------------------------------------------|

D               C            A#                    C
|-----13-----15--12--12----8--8--10--10------13--13----12----|
|-/10----10--------13--------------------10----10---8------8-|
|------------15------------9--9--10--10----10---------9--9---|
|------------------------------------------------------------|
|------------------------------------------------------------|
|------------------------------------------------------------|
 
D                 C                  A#                   C
|-------13-10----------8----8-12--12--10-10--10------10-------12-|
|---10---------10----8---8---------------------------------------|
|-10--10-----10----9------9-----------10-10--10--/10----10-12----|
|----------------------------------------------------------------|
|----------------------------------------------------------------|
|----------------------------------------------------------------|

D               C            A#                     C
|-----13-----15--12--12----8--8--10--10-------10---------12-|
|-/10----10--------13---------------------------------------|
|------------15------------9--9--10--10--7/10----10-12/9----|
|-----------------------------------------------------------|
|-----------------------------------------------------------|

D                  C            A#                    C
|----13---13-/17---12-12-13-12--8-8-10--10------10-------12----|
|-/10--10------------------------------------------------------|
|-------------------------------9-9-10--10-7/10----10-12----12-|
|--------------------------------------------------------------|
|--------------------------------------------------------------|
|--------------------------------------------------------------|

D               C             A#                   C
|-12-10----10---12-10----10---8--10--10------10-------12----|
|-----------------------------------------------------------|
|-------10------------10------9--10--10-7/10----10-12----12-|
|-----------------------------------------------------------|
|-----------------------------------------------------------|
|-----------------------------------------------------------|


|-12-10----10----8-8-8-8---8--10-10----------10-------12-----|
|-------10---------------------------------------------------|
|----------10----9-9-9-9---9--10-10-----7/10----10-12-----12-|
|------------------------------------------------------------|
|------------------------------------------------------------|
|------------------------------------------------------------|


*Acoustic Solo A*


|-------------5---------------------------8-|
|-5-6-5---6-8---8-6-5---5-6-5---------------|
|-------7-------------7-------7-6-5--7/9----|
|-------------------------------------------|
|-------------------------------------------|
|-------------------------------------------|


|-----------------------5-6-5-6-5----------------------|
|---------------5-6-5-6-----------8-6-5---6h7----------|
|-------5-7-6-7-------------------------7-----7-6-5----|
|-8-7-8------------------------------------------------|
|------------------------------------------------------|
|------------------------------------------------------|


|-5-8---5------------------------------------------------|
|-----6-----6----------------------------3---5---6-/-8---|
|---------7-----7---------------------5--3---5---7-/-9---|
|-------------7-----7-------------------///-///-///-///--|
|-----------------5-----7-5-4-3--5/7---------------------|
|---------------------7----------------------------------|


*Acoustic Solo B*


|-------5--8-5---5-----------8------------------10-|
|--------------8---------5-6---5-6-13/17-13---10---|
|-5---5------------7-5-7--------------------10-----|
|----7---------------------------------------------|
|---8----------------------------------------------|
|--------------------------------------------------|


|-13/15-13-12----12------------------13-10---------------------------|
|-------------13----13----13-14-15----------13-10--------------------|
|----------------------14-------------------------12-12b15r12-10--10-|
|---------------------------------------------------------------12---|
|--------------------------------------------------------------------|
|--------------------------------------------------------------------|


|----------------------------10-13-10----------------|
|----------------------10-13----------13-10----------|
|-12--10---------10-12----------------------12-10----|
|----------10-12-------------------------------------|
|----------------------------------------------------|
|----------------------------------------------------|


|------------------9-10-12-10-9-8-10\-/12---15-12--12--|
|---------------10-------------------------------------|
|-------9-10-12----------------------------------------|
|-11-12------------------------------------------------|
|------------------------------------------------------|
|------------------------------------------------------|


|-12-13-12-10----10---5------------------------|
|-------------13--------8-6-----8-6------------|
|---------------------------7-5-----5---7-5-7--|
|----------------------------------------------|
|----------------------------------------------|
|----------------------------------------------|


|-------------------------------------10-12b13--|
|-----5-8-6-5-------10-13-11-10----11-----------|
|---5------------10-------------12--------------|
|-7-----------12--------------------------------|
|-----------------------------------------------|
|-----------------------------------------------|


*Dual Solo*
- Repeat 4 times until fading out


| Guitar 5
|-13-12-10----------13-12-10----------13-12-10-11---|
|---------------------------------------------------|
|---------------------------------------------------|
|---------------------------------------------------|
|---------------------------------------------------|
|---------------------------------------------------|
|
|
| Guitar 6
|----------17-13-------------17-13------------------|
|----------------15----------------15---------------|
|---------------------------------------------------|
|---------------------------------------------------|
|---------------------------------------------------|
|---------------------------------------------------|


| Guitar 5
|-12-10-8----------12-10-8----------12-10-8--9------|
|---------------------------------------------------|
|---------------------------------------------------|
|---------------------------------------------------|
|---------------------------------------------------|
|---------------------------------------------------|
|
|
| Guitar 6
|----------15-12-------------15-12------------------|
|----------------13----------------13---------------|
|---------------------------------------------------|
|---------------------------------------------------|
|---------------------------------------------------|
|---------------------------------------------------|


| Guitar 5
|-10--8--6---------10--8--6-----------10--8--6--8---|
|---------------------------------------------------|
|---------------------------------------------------|
|---------------------------------------------------|
|---------------------------------------------------|
|---------------------------------------------------|
|
|
| Guitar 6
|----------13-10-------------13-10----13-12-10-12---|
|----------------11----------------11---------------|
|---------------------------------------------------|
|---------------------------------------------------|
|---------------------------------------------------|
|---------------------------------------------------|


| Guitar 1
|-10--8--6----6--8--10---12-10--8---8--10--12-|
|----------6----------------------8-----------|
|---------------------------------------------|
|---------------------------------------------|
|---------------------------------------------|
|---------------------------------------------|
|
|
| Guitar 2
|-13-12-10----10-12-13---15-13-12----12-13-15-|
|----------11---------------------13----------|
|---------------------------------------------|
|---------------------------------------------|
|---------------------------------------------|
|---------------------------------------------|

There you go guys, Sidewinder, one of the best songs by A7X.
Later guys, GL

            
            
Suggest correction
Creating personal tab
Creating personal tab
You can edit any tab online and save it as your Personal.

You can edit, replace or remove any tab part or add personal notes – all changes will be seen only by you.

Personal tabs can be accessed anytime from any device, even offline.
Learn more »
comments
print report bad tab
guest
You may want to rate the tab now too:
select rating
Wanna post a correction for this tab? Suggest correction