Oops, an error
Loading. Please wait.

Simulation Bass

1,051 views 18 this week
1 commentread comment
1 2 3 4 5
x 4
add to favorites
launch autoscroll
font size
0
reset
guitar tuner
Autoscroll
slow
fast
+/-
esc
set tempo
stop
Author
Difficulty
Tuning
intermediate
D A D G
An error occurred when I first tried posting this, so hopefully it works.

Verse 
G|---|------------------------------------------------------------------|
D|---|o----------------------------------------------------------------o|
A|---|o----------------------------------------------------------------o|x3
D|-5-|---------------8---------------7---------------6---------------5--|
   +   1 + 2 + 3 + 4 + 1 + 2 + 3 + 4 + 1 + 2 + 3 + 4 + 1 + 2 + 3 + 4 +

G|-----------------------------------------------------------------|
D|-----------------------------------------------------------------|
A|---------------------------------------------------------------3-|
D|---------------8---------------7---------------6-----------------|
   1 + 2 + 3 + 4 + 1 + 2 + 3 + 4 + 1 + 2 + 3 + 4 + 1 + 2 + 3 + 4 +

G|-----------------------------------------------------------------|
D|-----------------------------------------------------------------|
A|-------3-3-5-3-1---------1-3-1-0-0---------------------6-8-6---3-|
D|-----------------------------------------7-8-7-6-------------8---|
   1 + 2 + 3 + 4 + 1 + 2 + 3 + 4 + 1 + 2 + 3 + 4 + 1 + 2 + 3 + 4 +

G|-----------------------------------------------------------------|
D|-----------------------------------------------------------------|
A|-------3-3-5-3-1-------1-1-3-1-0-0-------------------------6-8---|
D|-----------------------------------------7-8-7-6-6-------------5-|
   1 + 2 + 3 + 4 + 1 + 2 + 3 + 4 + 1 + 2 + 3 + 4 + 1 + 2 + 3 + 4 +

G|-----------------------------------------------------------------|
D|-----------------------------------------------------------------|
A|-----------------------------------------------------------------| slow down
D|---------------8---------------7-------------------------------6-| near end
   1 + 2 + 3 + 4 + 1 + 2 + 3 + 4 + 1 + 2 + 3 + 4 + 1 + 2 + 3 + 4 +

Rest

Pre Chorus 0:52
G|-----------------------------------------------------------------|
D|-----------------------------------------------------------------|
A|-----------------------------------------------------------------|
D|-0-0-0-0-0-0-----0-0-0-0-0-0-----0-0-0-0-0-0-----0-0-3---0-0-6---|
   1 + 2 + 3 + 4 + 1 + 2 + 3 + 4 + 1 + 2 + 3 + 4 + 1 + 2 + 3 + 4 +

Chorus 0:58
G|-----------------------------------------------------------------|
D|-----------------------------------------------------------------|
A|-----------------------------------------------------------------|
D|-0-0-0-0-0-0-0-0-3-3-3-3-3-3-3-3-2-2-2-2-2-2-2-2-1-1-1-1-1-1-1-1-|
   1 + 2 + 3 + 4 + 1 + 2 + 3 + 4 + 1 + 2 + 3 + 4 + 1 + 2 + 3 + 4 +

G|-----------------------------------------------------------------|
D|-----------------------------------------------------------------|
A|-----------------------------------------------------------------|
D|-0-0-0-0-0-0-0-0-3-3-3-3-3-3-3-3-2-2-2-2-2-2-2-2-1111111111111111|
   1 + 2 + 3 + 4 + 1 + 2 + 3 + 4 + 1 + 2 + 3 + 4 + 1 + 2 + 3 + 4 +

G|-----------------------------------------------------------------|
D|-----------------------------------------------------------------|
A|-----------------------------------------------------------------|
D|-0-0-0-0-0-0-0-0-3-3-3-3-3-3-3-3-2-2-2-2-2-2-2-2-1-1-1-1-1-1-1-1-|
   1 + 2 + 3 + 4 + 1 + 2 + 3 + 4 + 1 + 2 + 3 + 4 + 1 + 2 + 3 + 4 +

G|-----------------------------------------------------------------|
D|-----------------------------------------------------------------|
A|-----------------------------------------------------------------|
D|-0-0-0-0-0-0-0-0-3-3-3-3-3-3-3-3-2-2-2-2-2-2-2-2-1111111133331111|
   1 + 2 + 3 + 4 + 1 + 2 + 3 + 4 + 1 + 2 + 3 + 4 + 1 + 2 + 3 + 4 +

Interlude 1:18
G|-----------------------------------------------------------------|
D|-----------------------------------------------------------------|
A|-----------------------------------------------------------------|
D|-0-0-3-3-2-2-1-1-0-0-3-3-2-2-1-1-00003333222211110000333322221111|
   1 + 2 + 3 + 4 + 1 + 2 + 3 + 4 + 1 + 2 + 3 + 4 + 1 + 2 + 3 + 4 +

G|-----------------------------------------------------------------|
D|-----------------------------------------------------------------|
A|-3h5-----3h5-----3h5-----3h5-------------------------------------|
D|-----0-0-----0-0-----0-0-----0-0(6)------------------------------| (6) = hold
   1 + 2 + 3 + 4 + 1 + 2 + 3 + 4 + 1 + 2 + 3 + 4 + 1 + 2 + 3 + 4 +

Verse 1:34
G|---|------------------------------------------------------------------|
D|---|o----------------------------------------------------------------o|
A|---|o----------------------------------------------------------------o|x3
D|-5-|---------------8---------------7---------------6---------------5--|
   +   1 + 2 + 3 + 4 + 1 + 2 + 3 + 4 + 1 + 2 + 3 + 4 + 1 + 2 + 3 + 4 +

G|-----------------------------------------------------------------|
D|-----------------------------------------------------------------|
A|---------------------------------------------------------------3-|
D|---------------8---------------7---------------6-----------------|
   1 + 2 + 3 + 4 + 1 + 2 + 3 + 4 + 1 + 2 + 3 + 4 + 1 + 2 + 3 + 4 +

G|-----------------------------------------------------------------|
D|-----------------------------------------------------------------|
A|---------3-5-3-1-1---1-1-1-3-1-0-0---------------------6-8-6-6-3-|
D|---------------------------------------7-7-8-7-6-----------------|
   1 + 2 + 3 + 4 + 1 + 2 + 3 + 4 + 1 + 2 + 3 + 4 + 1 + 2 + 3 + 4 +

G|-----------------------------------------------------------------|
D|-----------------------------------------------------------------|
A|---------3-5-3-1-1---1-1-1-3-1-0-0-------------------------6-8---|
D|---------------------------------------7-7-8-7-6---------------5-|
   1 + 2 + 3 + 4 + 1 + 2 + 3 + 4 + 1 + 2 + 3 + 4 + 1 + 2 + 3 + 4 +

G|-----------------------------------------------------------------|
D|-----------------------------------------------------------------|
A|-----------------------------------------------------------------| slow down
D|---------------8---------------7-------------------------------6-| near end
   1 + 2 + 3 + 4 + 1 + 2 + 3 + 4 + 1 + 2 + 3 + 4 + 1 + 2 + 3 + 4 +

Rest

Pre Chorus 2:26
G|-----------------------------------------------------------------|
D|-----------------------------------------------------------------|
A|-----------------------------------------------------------------|
D|-0-0-0-0-0-0-----0-0-0-0-0-0-----0-0-0-0-0-0-----0-0-3---0-0-6---|
   1 + 2 + 3 + 4 + 1 + 2 + 3 + 4 + 1 + 2 + 3 + 4 + 1 + 2 + 3 + 4 +

Chorus 2:31
G|-----------------------------------------------------------------|
D|-----------------------------------------------------------------|
A|-----------------------------------------------------------------|
D|-0-0-0-0-0-0-0-0-3-3-3-3-3-3-3-3-2-2-2-2-2-2-2-2-1-1-1-1-1-1-1-1-|
   1 + 2 + 3 + 4 + 1 + 2 + 3 + 4 + 1 + 2 + 3 + 4 + 1 + 2 + 3 + 4 +

G|-----------------------------------------------------------------|
D|-----------------------------------------------------------------|
A|-----------------------------------------------------------------|
D|-0-0-0-0-0-0-0-0-3-3-3-3-3-3-3-3-2-2-2-2-2-2-2-2-1111111122223333|
   1 + 2 + 3 + 4 + 1 + 2 + 3 + 4 + 1 + 2 + 3 + 4 + 1 + 2 + 3 + 4 +

G|-----------------------------------------------------------------|
D|-----------------------------------------------------------------|
A|-----------------------------------------------------------------|
D|-0-0-0-0-0-0-0-0-3-3-3-3-3-3-3-3-2-2-2-2-2-2-2-2-1-1-1-1-1-1-1-1-|
   1 + 2 + 3 + 4 + 1 + 2 + 3 + 4 + 1 + 2 + 3 + 4 + 1 + 2 + 3 + 4 +

G|-----------------------------------------------------------------|
D|-----------------------------------------------------------------|
A|-----------------------------------------------------------------|
D|-0-0-0-0-0-0-0-0-3-3-3-3-3-3-3-3-2-2-2-2-2-2-2-2-1-1-1-1-3-3-2-1-|
   1 + 2 + 3 + 4 + 1 + 2 + 3 + 4 + 1 + 2 + 3 + 4 + 1 + 2 + 3 + 4 +

Interlude
G|-----------------------------------------------------------------|
D|-----------------------------------------------------------------|
A|-----------------------------------------------------------------|
D|-0-0-3-3-2-2-1-1-0-0-3-3-2-2-1-1-00003333222211110000333322221111|
   1 + 2 + 3 + 4 + 1 + 2 + 3 + 4 + 1 + 2 + 3 + 4 + 1 + 2 + 3 + 4 +

G|-----------------------------------------------------------------|
D|-----------------------------------------------------------------|
A|-3h5-----3h5-----3h5-----3h5-------------------------------------|
D|-----0-0-----0-0-----0-0-----0-0(6)------------------------------| (6) = hold
   1 + 2 + 3 + 4 + 1 + 2 + 3 + 4 + 1 + 2 + 3 + 4 + 1 + 2 + 3 + 4 +

Rest

Breakdown 3:24
G|-------------------------------------------------------------------|
D|o-----------------------------------------------------------------o|
A|o------/5-4----/4-3----/3-4------------/5-4----/4-3----/3-4-------o|
D|--0---00------00------00------0-0-0---00------00------00------00-0-|
    1 + 2 + 3 + 4 + 1 + 2 + 3 + 4 + 1 + 2 + 3 + 4 + 1 + 2 + 3 + 4 +

3:45
G|-----------------------------------------------------------------|
D|-----------------------------------------------------------------|
A|------/7-6----/6-5----/5-6------------/7-6----/6-5----/5-6-------|
D|-2---2-------2-------2-------2-2-2---2-------2-------2-------22-2|
   1 + 2 + 3 + 4 + 1 + 2 + 3 + 4 + 1 + 2 + 3 + 4 + 1 + 2 + 3 + 4 +

G|-------------------------------------------------|
D|-------------------------------------------------|
A|------/5-4----/4-3----/3-4------------/5-4----/4-|
D|-0---0-------0-------0-------0-0-0---0-------0---|
   1 + 2 + 3 + 4 + 1 + 2 + 3 + 4 + 1 + 2 + 3 + 4 + 

G|-----------------------------------------------------------------|
D|-----------------------------------------------------------------|
A|-----------------------------------------------------------------|
D|-3-3-1-3-3-1-3-1-3-3-1-3-3-1-3-1-3-3-1-3-3-1-3-1-3-3-1-3-3-1-3-1-|
   1 + 2 + 3 + 4 + 1 + 2 + 3 + 4 + 1 + 2 + 3 + 4 + 1 + 2 + 3 + 4 +

Solo 4:07
G|-----------------------------------------------------------------|
D|-----------------------------------------------------------------|
A|-----------------------------------------------------------------|
D|-0-0-0-0-0-0-0-0-3-3-3-3-3-3-3-3-2-2-2-2-2-2-2-2-1-1-1-1-1-1-1-1-|
   1 + 2 + 3 + 4 + 1 + 2 + 3 + 4 + 1 + 2 + 3 + 4 + 1 + 2 + 3 + 4 +

G|-----------------------------------------------------------------|
D|-----------------------------------------------------------------|
A|-----------------------------------------------------------------|
D|-0-0-0-0-0-0-0-0-3-3-3-3-3-3-3-3-2-2-2-2-2-2-2-2-1111111133331111|
   1 + 2 + 3 + 4 + 1 + 2 + 3 + 4 + 1 + 2 + 3 + 4 + 1 + 2 + 3 + 4 +

G|-----------------------------------------------------------------|
D|-----------------------------------------------------------------|
A|-----------------------------------------------------------------|
D|-0-0-0-0-0-0-0-0-3-3-3-3-3-3-3-3-2-2-2-2-2-2-2-2-1-1-1-1-1-1-1-1-|
   1 + 2 + 3 + 4 + 1 + 2 + 3 + 4 + 1 + 2 + 3 + 4 + 1 + 2 + 3 + 4 +

G|-----------------------------------------------------------------|
D|-----------------------------------------------------------------|
A|-----------------------------------------------------------------|
D|-0-------0-------3--3--3-3--3--3-2-------2-------1---1---1---1---|
   1 + 2 + 3 + 4 + 1 + 2 + 3 + 4 + 1 + 2 + 3 + 4 + 1 + 2 + 3 + 4 +

Interlude
G|-----------------------------------------------------------------|
D|-----------------------------------------------------------------|
A|-----------------------------------------------------------------|
D|-0-0-3-3-2-2-1-1-0-0-3-3-2-2-1-1-00003333222211110000333322221111|
   1 + 2 + 3 + 4 + 1 + 2 + 3 + 4 + 1 + 2 + 3 + 4 + 1 + 2 + 3 + 4 +

G|-----------------------------------------------------------------|
D|-----------------------------------------------------------------|
A|-3h5-----3h5-----3h5-----3h5-----3h5---------3h5---------5---3h5-|
D|-----0-0-----0-0-----0-0-----0-0-----0-0-0-0-----0-0-0-0---------| 
   1 + 2 + 3 + 4 + 1 + 2 + 3 + 4 + 1 + 2 + 3 + 4 + 1 + 2 + 3 + 4 +

G|-----------------------------------------------------------------|
D|-----------------------------------------------------------------|
A|-----------------------------------------------------------------|
D|-6---------------------------------------------------------------|
   1 + 2 + 3 + 4 + 1 + 2 + 3 + 4 + 1 + 2 + 3 + 4 + 1 + 2 + 3 + 4 +

Verse 4:45
G|---|------------------------------------------------------------------|
D|---|o----------------------------------------------------------------o|
A|---|o----------------------------------------------------------------o|x3
D|-5-|---------------8---------------7---------------6---------------5--|
   +   1 + 2 + 3 + 4 + 1 + 2 + 3 + 4 + 1 + 2 + 3 + 4 + 1 + 2 + 3 + 4 +

G|-----------------------------------------------------------------|
D|-----------------------------------------------------------------|
A|-----------------------------------------------------------------| Slow down
D|---------------8---------------7-------------------------------6-| near end
   1 + 2 + 3 + 4 + 1 + 2 + 3 + 4 + 1 + 2 + 3 + 4 + 1 + 2 + 3 + 4 +
Tabbed by Dave Vucko
Suggest correction
comments
print report bad tab
1 comment total.
0 reply
Twinsfan1993 11 Apr 14, 2017 04:47 PM

Guitar tab version please!

guest
You may want to rate the tab now too:
select rating
Wanna post a correction for this tab? Suggest correction