Oops, an error
Loading. Please wait.

So Far Away Bass Tab

version 1
version 1

Whole song

125,131 views 297 this week
15 commentsread comments
1 2 3 4 5
excellent!
x 32
add to favorites
launch autoscroll
font size
0
reset
guitar tuner
Tab Pro tools
  • play this tab
  • loop segment
  • change instrument
  • show fretboard
  • metronome
×
Best way to learn
"So Far Away"
Autoscroll
slow
fast
+/-
esc
set tempo
stop
Contributor
Difficulty
Tuning
intermediate
D A D G B E
So Far Away
Avenged Sevenfold
Nightmare

Tabbed By : fender4string
Tuning: Drop D


Verse
G|------------------------------------------------------4--------------------|
D|----------------------------------------------------4----------------------|
A|------------------------------------5-5--5h7p5----2-----3---3-3-333--------|
D|-2------2-2----2-2-----/5--5---5h7-----------------------------------------|

G|----------------------------------7----------------------------------------|
D|----------------------------5--7----7--4-----------------------------------|
A|-------------------------5---------------5----2---2---3--33--3333----------|
D|-2------2-2----2-2---/5----------------------------------------------------|


Pre-Chorus
G|-------------------------------------------|
D|-------------------------------------------|
A|-3---3--33--3-3-3-3/5--5--55-5--5h7p5------|
D|-------------------------------------------|


Chorus
G|---------------------------------------------------------------------------|
D|---------------------------------------------------------------------------|
A|-----------------------------------------------------------55--5h7p5-------|
D|-2----22-2--2-4-5---55-5--7-5-4-5--7----77-7--7h9p7--5---5-----------------|

G|---------------------------------------------------------------------------|
D|---------------------------------------------------------------------------|
A|---------------------------------------------------------------------------|
D|-2----22-2---4-5---55-5--7-5-4-5--7---77-7--7-9--10-10-10-10-12-12-12-12---|


Verse
G|------------------------------------------------------4--------------------|
D|----------------------------------------------------4----------------------|
A|------------------------------------5-5--5h7p5----2-----3---3-3-333--------|
D|-2------2-2----2-2-----/5--5---5h7-----------------------------------------|

G|----------------------------------7----------------------------------------|
D|----------------------------5--7----7--4-----------------------------------|
A|-------------------------5---------------5----2---2---3--33--3333----------|
D|-2--------2----------/5----------------------------------------------------|


Pre-Chorus
G|-------------------------------------------|
D|-------------------------------------------|
A|-3---3--33--3-3-3-3/5--5--55-5--5h7p5------|
D|-------------------------------------------|


Chorus (no variations)


Bridge
G|---------------------------------------------------------------------------|
D|------9--------------5-----------------------------------------------------|
A|----7-----7\----3--3-----3-----------7-------------------------------------|
D|-2------------------------------7--7-----7hp9h7---5---5---5----5\4---------|

G|---------------------------------------------------------------------------|
D|------9--------------5-----------7---7------5-----5------------------------|
A|----7-----7\----3--3-----3---5-5--------3-3-----3--3-0-3--5--5--5--5--5----|
D|-2-------------------------------------------------------------------------|


Solo
G|---------------------------------------------------------------------------|
D|----2----------------------------------------------------------------------|
A|---------------3--3--33-3--3-----------------------------------------------|
D|-2----22-2--2-----------------7--7--77-7--7---5-5-55555p4------------------|

G|---------------------------------------------------------------------------|
D|----2----------------------------------------------------------------------|
A|---------------3--3--33-3--3--5--5--55-5-5--3--3--33-3-3-3-5-5-5-555555h7--|
D|-2----22-2--2--------------------------------------------------------------|


Chorus 

G|---------------------------------------------------------------7---7h9p7---|
D|-------------------------------------------------------------7---7---------|
A|-----------------------------------------------------------5---------------|
D|-2---2--22-2---4-5--55-5--7-5-4-5--7--7--77-7--7h9p7--5-5-5----------------|

G|---------------------------------------------------------------------------|
D|---------------------------------------------------------------------------|
A|---------------------------------------------------------------------------|
D|-2----22-2---4-5---55-5--7-5-4-5--7---77-7--7-9--10-10-10-10-12-12-12-12---|

G|-----------------------------------------|
D|-----------------------------------------|
A|-----------------------------------------|
D|-77-7--7-9--10-10-10-10-12-12-12-12---2--|


Guitar Break


Solo 2/Chorus 2
G|---------------------------------------------------------------------------|
D|---------------------------------------------------------------------------|
A|-7-777-77-5-555-55-----------------------------5-555-55-3-33-33-33-33-3----|
D|-------------------7-777-77-5-55-4-44-2-222-22-----------------------------|

G|---------------------------------------------------------------------------|
D|---------------------------------------------------------------------------|
A|-7-777-77-5-555-55-----------------------------5-555-55-3-33-33-33-33-3----|
D|-------------------7-777-77-5-55-4-44-2-222-22-----------------------------|

G|--------------------------------------|
D|--------------------------------------|
A|-7-777-77-5-555-55-3-33-33-33-33-3----|  
D|--------------------------------------|

G|---------------------------------------------------------------------------|
D|---------------------------------------------------------------------------|
A|-7-777-77-5-555-55-----------------------------5-555-55-3-33-33-33-33-3----|
D|-------------------7-777-77-5-55-4-44-2-222-22-----------------------------|

G|---------------------------------------------------------------------------|
D|---------------------------------------------------------------------------|
A|-7-777-77-5-555-55-----------------------------5-555-55-3-33-33-33-33-3----|
D|-------------------7-777-77-5-55-4-44-2-222-22-----------------------------|

G|--------------------------------------------------------------------------------|
D|--------------------------------------------------------------10----10----------|
A|-7-777-77-5-555-55-3-33-33-33-33-3-7-777-77-5-555-55-3--/10-------10------------|  
D|------------------------------------------------------------------------5-4-5-7-|

G|----------------------------------------------------------|
D|----------------------------------------------------------|
A|-7-777-77-5-555-55-3-33-33-33-33-3-7-777-77-5-555-55-3----|  
D|----------------------------------------------------------|



~foREVer~



| /  slide up
| \  slide down
| h  hammer-on
| p  pull-off
| ~  vibrato
| +  harmonic
| x  Mute note
=================================================================
comments
print report bad tab
15 comments total. Showing first comments.
0 reply
BeastItUp wrote on February 17 2011, 11:43 pm

Amazing tab.

0 reply
BassDogg93 wrote on March 24 2011, 04:40 pm

Just awesome!It's virtually like the way Johnny C plays it!Just awesome!!!!

0 reply
fender4string wrote on May 31 2011, 12:49 pm

Thanks guys! I do my best to get note for note accuracy.

I want to post or [tab]
guest
You may want to rate the tab now too:
select rating
Please do not post tabs as comments. Select "correction" instead!