Oops, an error
Loading. Please wait.

So Far Away Tab

version 8
version 8

Solo

Whole song

64 views 1 this week
no commentswrite comment
1 2 3 4 5
2 more votes to show rating
add to favorites
launch autoscroll
font size
0
reset
how to read this tab
guitar tuner
Autoscroll
slow
fast
+/-
esc
set tempo
stop
Help us to improve Ultimate-Guitar.com Take our survey!
×
Author
Difficulty
intermediate
About this tab version
Standard tuning, no capo. This is, in my opinion, the most comfortable way to play the riff and the closest you can get to the original. Was this info helpful? Yes No
This is supposed to be the acoustic riff before the outro NOT THE WHOLE SONG.


e|-0---0---2-3---------------|
B|---0--0---3-3--------------|
G|----0--0-------------------|
D|-2-------------------------|
A|---------------------------|
E|---------------------------|

e|------------------------------------------------|
B|-1---1---------------------------0--0-----------|
G|---2--2---4---2----0-----0-----2-------0---0----|
D|----2--2----0---0-----2----2/4--4-----2-2-2-2---|
A|-0-------------------2-2------------3----3------|
E|----------3---2----0----------------------------|

Repeat this twice.

Legend

/ Slide
Suggest correction
Give kudos to tab author, rate the tab!
1 2 3 4 5
comments
print report bad tab
guest
You may want to rate the tab now too:
select rating
Wanna post a correction for this tab? Suggest correction