Oops, an error
Loading. Please wait.
We have an official So Far Away tab made by UG professional guitarists. Check out the tab »
×
16,877 views 3 this week
4 commentsread comments
1 2 3 4 5
x 6
add to favorites
×
Save as Personal and add changes to this tab that will be seen only by you. Learn more ›
×
You can save this tab as Personal to edit and correct it or add notes. All changes will be seen only by you. Learn more »
launch autoscroll
font size
0
reset
guitar tuner
backing track
0:00
0:00
edit
Autoscroll
slow
fast
+/-
esc
set tempo
stop
Author
Difficulty
Tuning: Standard

[Verse] X2
G|--------------------------------------------------------------------------|
D|--------------------------------------------------------------------------|
A|------------------------------------5-5--7-5----2-2-2--3---3-3-333--------|
D|-0------0-0----0-0------3--3--5-3-----------------------------------------|

[Pre-Chorus]
G|-------------------------------------------|
D|-------------------------------------------|
A|-3---3--33--3-3-3-3-5--5--55-5--5-7-5------|
D|-------------------------------------------|

[Chorus]
G|--------------------------------------------------------------------------|
D|--------------------------------------------------------------------------|
A|------------------------------------------5-5-5-5-7-5---------------------|
D|-0----00-0--0-2-3-3-3-7-5-5-5-5-5--7--------------------------------------|

G|--------------------------------------------------------------------------|
D|--------------------------------------------------------------------------|
A|--------------------------------------------------------------------------|
D|-0----00-0--0-2-3-3-3-7-5-5-5-5-5--7------8-8-10-10-10--------------------|

[Verse] X2
G|--------------------------------------------------------------------------|
D|--------------------------------------------------------------------------|
A|------------------------------------5-5--7-5----2-2-2--3---3-3-333--------|
D|-0------0-0----0-0------3--3--5-3-----------------------------------------|

[Pre-Chorus]
G|-------------------------------------------|
D|-------------------------------------------|
A|-3---3--33--3-3-3-3-5--5--55-5--5-7-5------|
D|-------------------------------------------|

[Chorus]
G|--------------------------------------------------------------------------|
D|--------------------------------------------------------------------------|
A|------------------------------------------5-5-5-5-7-5---------------------|
D|-0----00-0--0-2-3-3-3-7-5-5-5-5-5--7--------------------------------------|

G|--------------------------------------------------------------------------|
D|--------------------------------------------------------------------------|
A|--------------------------------------------------------------------------|
D|-0----00-0--0-2-3-3-3-7-5-5-5-5-5--7------8-8-10-10-10--------------------|

[Bridge]
G|--------------------------------------------------------------------------|
D|--------------------------------------------------------------------------|
A|---------------3--3--33-3--3----------------------------------------------|
D|-0----00-0--0------------------5--5--55-5--5---5-5-3333p2-----------------|

G|--------------------------------------------------------------------------|
D|--------------------------------------------------------------------------|
A|---------------3--3--33-3--3--5--5--55-5-5--3--3--33-3-3-3-5-5-5-555555h7-|
D|-0----00-0--0-------------------------------------------------------------|

[Solo]
G|--------------------------------------------------------------------------|
D|--------------------------------------------------------------------------|
A|---------------3--3--33-3--3----------------------------------------------|
D|-0----00-0--0------------------5--5--55-5--5---5-5-3333p2-----------------|

G|--------------------------------------------------------------------------|
D|--------------------------------------------------------------------------|
A|---------------3--3--33-3--3--5--5--55-5-5--3--3--33-3-3-3-5-5-5-555555h7-|
D|-0----00-0--0-------------------------------------------------------------|

[Chorus]
G|--------------------------------------------------------------------------|
D|--------------------------------------------------------------------------|
A|-----------------------------------------------------------5-5-5-5-7-5----|
D|-0----00-0--0-2-3-3-3-7-5-5-5-5-5--7-7-7-7-7-7-7--------------------------|

G|--------------------------------------------------------------------------|
D|--------------------------------------------------------------------------|
A|--------------------------------------------------------------------------|
D|-0----00-0--0-2-3-3-3-7-5-5-5-5-5--7------8-8-10-10-10--------------------|

G|-----------------------------------------|
D|-----------------------------------------|
A|-----------------------------------------|
D|-55-5--5-7--8--8--8--8--10-10-10-10---0--|

Guitar Break

[Solo 2/Chorus 2]
G|--------------------------------------------------------------------------|
D|--------------------------------------------------------------------------|
A|-7-777-77-5-555-55-----------------------------5-555-55-3-33-33-33-33-3---|
D|-------------------5-555-55-2-33-2-22-0-000-00----------------------------|

G|--------------------------------------------------------------------------|
D|--------------------------------------------------------------------------|
A|-7-777-77-5-555-55-----------------------------5-555-55-3-33-33-33-33-3---|
D|-------------------5-555-55-2-33-2-22-0-000-00----------------------------|

G|--------------------------------------|
D|--------------------------------------|
A|-7-777-77-5-555-55-3-33-33-33-33-3----|  
D|--------------------------------------|

G|--------------------------------------------------------------------------|
D|--------------------------------------------------------------------------|
A|-7-777-77-5-555-55-----------------------------5-555-55-3-33-33-33-33-3---|
D|-------------------5-555-55-2-33-2-22-0-000-00----------------------------|

G|--------------------------------------------------------------------------|
D|--------------------------------------------------------------------------|
A|-7-777-77-5-555-55-----------------------------5-555-55-3-33-33-33-33-3---|
D|-------------------5-555-55-2-33-2-22-0-000-00----------------------------|

G|--------------------------------------------------------------------------|
D|--------------------------------------------------------------------------|
A|-7-777-77-5-555-55-3-33-33-33-33-3-7-777-77-5-555-55-3--33-33-33-33-3-----|
D|--------------------------------------------------------------------------|

G|----------------------------------------------------------|
D|----------------------------------------------------------|
A|-7-777-77-5-555-55-3-33-33-33-33-3-7-777-77-5-555-55-3----|  
D|----------------------------------------------------------|

amersnapo : This is the easier way to play this song. <3 
Suggest correction
Creating personal tab
Creating personal tab
You can edit any tab online and save it as your Personal.

You can edit, replace or remove any tab part or add personal notes – all changes will be seen only by you.

Personal tabs can be accessed anytime from any device, even offline.
Learn more »
comments
print report bad tab
4 comments total. Showing first comments.
+1 reply
HolyJozef 10 Mar 27, 2012 10:24 AM

It sais tuning standard, but it's actually drop D

0 reply
Selina Finsel 61 Oct 08, 2013 10:28 PM

Even though it's played in Drop D the lowest note is E so there's no need for drop D unless you're playing a bunch of songs to fit that tuning. I play standard too but play it a little different than this version but it still is a good submission ;)

0 reply
Rhythm13 55 Dec 05, 2013 11:23 AM

This tab is correct and it is in drop D, just watch the beginning of the music video and you won't see Johnny pressing a fret. Simply none :D

guest
You may want to rate the tab now too:
select rating
Wanna post a correction for this tab? Suggest correction