Oops, an error
Loading. Please wait.
We have an official So Far Away tab made by UG professional guitarists. Check out the tab »
×
1,519 views 3 this week
no commentswrite comment
1 2 3 4 5
3 more votes to show rating
add to favorites
×
Save as Personal and add changes to this tab that will be seen only by you. Learn more ›
×
You can save this tab as Personal to edit and correct it or add notes. All changes will be seen only by you. Learn more »
launch autoscroll
font size
0
reset
guitar tuner
backing track
0:00
0:00
edit
Autoscroll
slow
fast
+/-
esc
set tempo
stop
G|-----------------------------------------------------------------|
D|-----------------------------------------------------------------|
A|-----------------------------------------------------------------|
D|-2-----------------------2-2---2-2-------------------------------|
   1 e + a 2 e + a 3 e + a 4 e + a 1 e + a 2 e + a 3 e + a 4 e + a 

G|-----------------------------------------4-r---------------------|
D|-------------------------------------4---------------------------|
A|-----------------5---5---5h7-5---2-----------3-----3-3---3-3-3-3-|
D|-5---5---5---5h7-------------------------------------------------|
   1 e + a 2 e + a 3 e + a 4 e + a 1 e + a 2 e + a 3 e + a 4 e + a 

G|-----------------------------------------------------------------|
D|-----------------------------------------------------------------|
A|-----------------------------------------------------------------|
D|-2-----------------------2-2---2-2-------------------------------|
   1 e + a 2 e + a 3 e + a 4 e + a 1 e + a 2 e + a 3 e + a 4 e + a 

G|-----------------7-----------------------------------------------|
D|---------5---7-------7---4---------------------------------------|
A|-----5-----------------------5---2---2---r---3-----3-3---3---3---|
D|-5---------------------------------------------------------------|
   1 e + a 2 e + a 3 e + a 4 e + a 1 e + a 2 e + a 3 e + a 4 e + a 

0:25
G|-----------------------------------------------------------------|
D|-----------------------------------------------------------------|
A|-3-------3-----3-3---3---3---r---5-------5-------5---5---5h7p5---|
D|-----------------------------------------------------------------|
   1 e + a 2 e + a 3 e + a 4 e + a 1 e + a 2 e + a 3 e + a 4 e + a 

0:31
G|-----------------------------------------------------------------|
D|-----------------------------------------------------------------|
A|-----------------------------------------------------------------|
D|-2-------2-----2-2-r-2---2---4---5-------5-----5-5-r-5---7-5-4---|
   1 e + a 2 e + a 3 e + a 4 e + a 1 e + a 2 e + a 3 e + a 4 e + a 

G|-----------------------------------------------------------------|
D|-----------------------------------------------------------------|
A|-------------------------------------------------5-------5h7p5---|
D|-7-------7-----7-7-r-7---7h9p7---5-------5-----------------------|
   1 e + a 2 e + a 3 e + a 4 e + a 1 e + a 2 e + a 3 e + a 4 e + a 

G|-----------------------------------------------------------------|
D|-----------------------------------------------------------------|
A|-----------------------------------------------------------------|
D|-2-------2-----2-2-r-2-------4---5---5---5-----5-5-r-5---7-5-4-5-|
   1 e + a 2 e + a 3 e + a 4 e + a 1 e + a 2 e + a 3 e + a 4 e + a 

G|-----------------------------------------------------------------|
D|-----------------------------------------------------------------|
A|-0-------0---0-0-0-r-0---0---2---3---3---3---3---5---5---5---5---|
D|-----------------------------------------------------------------|
   1 e + a 2 e + a 3 e + a 4 e + a 1 e + a 2 e + a 3 e + a 4 e + a 

0:57
G|-----------------------------------------------------------------|
D|-----------------------------------------------------------------|
A|-----------------------------------------------------------------|
D|-2-------------------------------2-------------------------------|
   1 e + a 2 e + a 3 e + a 4 e + a 1 e + a 2 e + a 3 e + a 4 e + a 

G|-----------------------------------------4-r---------------------|
D|-------------------------------------4---------------------------|
A|-----------------5---5---5h7-5---2-----------3-----3-3---3-3-3-3-|
D|-5---5---5---5h7-------------------------------------------------|
   1 e + a 2 e + a 3 e + a 4 e + a 1 e + a 2 e + a 3 e + a 4 e + a 

G|-----------------------------------------------------------------|
D|-----------------------------------------------------------------|
A|-----------------------------------------------------------------|
D|-2-----------------------2-2---2-2-2-2---------------------------|
   1 e + a 2 e + a 3 e + a 4 e + a 1 e + a 2 e + a 3 e + a 4 e + a 

G|-----------------7-----------------------------------------------|
D|---------5---7-------7---4---------------------------------------|
A|-----5-----------------------5---2---2---r---3-----3-3---3-3-3-3-|
D|-5---------------------------------------------------------------|
   1 e + a 2 e + a 3 e + a 4 e + a 1 e + a 2 e + a 3 e + a 4 e + a 

1:22
G|-----------------------------------------------------------------|
D|-----------------------------------------------------------------|
A|-3-------3-----3-3---3---3---r---5---5---5---5---5---5---5h7p5---|
D|-----------------------------------------------------------------|
   1 e + a 2 e + a 3 e + a 4 e + a 1 e + a 2 e + a 3 e + a 4 e + a 

1:28
G|-----------------------------------------------------------------|
D|-----------------------------------------------------------------|
A|-----------------------------------------------------------------|
D|-2-------2-----2-2-r-2---2---4---5-------5-----5-5-r-5---7-5-4---|
   1 e + a 2 e + a 3 e + a 4 e + a 1 e + a 2 e + a 3 e + a 4 e + a 

G|-----------------------------------------------------------------|
D|-----------------------------------------------------------------|
A|-------------------------------------------------5---5---5h7p5---|
D|-7-------7-----7-7-r-7---7h9p7---5-------5-----5-----------------|
   1 e + a 2 e + a 3 e + a 4 e + a 1 e + a 2 e + a 3 e + a 4 e + a 

G|-----------------------------------------------------------------|
D|-----------------------------------------------------------------|
A|-----------------------------------------------------------------|
D|-2-------2-----2-2-r-2-------4---5-------5-----5-5-r-5---7-5-4-5-|
   1 e + a 2 e + a 3 e + a 4 e + a 1 e + a 2 e + a 3 e + a 4 e + a 

G|-----------------------------------------------------------------|
D|-----------------------------------------------------------------|
A|-0-------0-----0-0-r-0---0---2---3---3---3---3---5---5---5---5---|
D|-----------------------------------------------------------------|
   1 e + a 2 e + a 3 e + a 4 e + a 1 e + a 2 e + a 3 e + a 4 e + a 

1:53
G|-----------------------------------------------------------------|
D|-------------9-------------------------------5-------------------|
A|---------7---------------7---\---3-------3---------------3---\---|
D|-2---------------------------------------------------------------|
   1 e + a 2 e + a 3 e + a 4 e + a 1 e + a 2 e + a 3 e + a 4 e + a 

G|-----------------------------------------------------------------|
D|-----------------------------------------------------------------|
A|-0-------0---7-----------0h2p0-----------------------------------|
D|---------------------------------5-------5---5-----------5---4---|
   1 e + a 2 e + a 3 e + a 4 e + a 1 e + a 2 e + a 3 e + a 4 e + a 

2:06
G|-----------------------------------------------------------------|
D|-------------9-------------------------------5-------------------|
A|---------7---------------7---\---3-------3---------------3-------|
D|-2---------------------------------------------------------------|
   1 e + a 2 e + a 3 e + a 4 e + a 1 e + a 2 e + a 3 e + a 4 e + a 

G|-----------------------------------------------------------------|
D|-------------7-----------7-------------------5-----------5-------|
A|-5-------5-----------------------3-------3-----------3-------0-3-|
D|-----------------------------------------------------------------|
   1 e + a 2 e + a 3 e + a 4 e + a 1 e + a 2 e + a 3 e + a 4 e + a 

G|---------------------------------|
D|---------------------------------|
A|-5-------5---5-------5---5---5---|
D|---------------------------------|
   1 e + a 2 e + a 3 e + a 4 e + a 

2:21
G|-----------------------------------------------------------------|
D|---------2-------------------------------------------------------|
A|---------------------------------3-------3-----3-3---3-3-3-------|
D|-2-------------2-2---2---2---------------------------------------|
   1 e + a 2 e + a 3 e + a 4 e + a 1 e + a 2 e + a 3 e + a 4 e + a 

G|-----------------------------------------------------------------|
D|-----------------------------------------------------------------|
A|-0-------0---0-0-0---0---0---0-----------------------------------|
D|---------------------------------5-----5-5-----5-5---5-5-5---4---|
   1 e + a 2 e + a 3 e + a 4 e + a 1 e + a 2 e + a 3 e + a 4 e + a 

2:34
G|-----------------------------------------------------------------|
D|---------2-------------------------------------------------------|
A|---------------------------------3-------3-----3-3---3-3-3---3---|
D|-2-----------2-2-2---2---2---------------------------------------|
   1 e + a 2 e + a 3 e + a 4 e + a 1 e + a 2 e + a 3 e + a 4 e + a 

G|-----------------------------------------------------------------|
D|-----------------------------------------------------------------|
A|-5-------5---5-5-5---5---5---5---3-------3---3-3-3-3-3-3-3---3---|
D|-----------------------------------------------------------------|
   1 e + a 2 e + a 3 e + a 4 e + a 1 e + a 2 e + a 3 e + a 4 e + a 

G|---------------------------------|
D|---------------------------------|
A|-5-5-5-5-5-5-5-----5-5---5-7-9---|
D|---------------------------------|
   1 e + a 2 e + a 3 e + a 4 e + a 

2:50
G|-----------------------------------------------------------------|
D|-----------------------------------------------------------------|
A|-----------------------------------------------------------------|
D|-2-------2-----2-2-r-2-------4---5-------5-----5-5-r-5---7-5-4-5-|
   1 e + a 2 e + a 3 e + a 4 e + a 1 e + a 2 e + a 3 e + a 4 e + a 

G|-----------------------------------------------------7---7-9-7---|
D|---------------------------------------------------7---7---------|
A|-------------------------------------------------5---------------|
D|-7-------7-----7-7-r-7---7h9p7---5---5---5-----5-----------------|
   1 e + a 2 e + a 3 e + a 4 e + a 1 e + a 2 e + a 3 e + a 4 e + a 

G|-----------------------------------------------------------------|
D|-----------------------------------------------------------------|
A|-----------------------------------------------------------------|
D|-2-------2-----2-2-r-2-------4---5-------5-----5-5-r-5---7-5-4-5-|
   1 e + a 2 e + a 3 e + a 4 e + a 1 e + a 2 e + a 3 e + a 4 e + a 

G|-----------------------------------------------------------------|
D|-----------------------------------------------------------------|
A|-0-------0-----0-0-r-0---0-2-----3---------------5---5---5---5---|
D|-----------------------------------------------------------------|
   1 e + a 2 e + a 3 e + a 4 e + a 1 e + a 2 e + a 3 e + a 4 e + a 

G|-----------------------------------------------------------------|
D|-----------------------------------------------------------------|
A|-0-------0-----0-0-r-0---0-2-----3-------3---3---5---5---5-5-5---|
D|-----------------------------------------------------------------|
   1 e + a 2 e + a 3 e + a 4 e + a 1 e + a 2 e + a 3 e + a 4 e + a 

G|-----------------------------------------------------------------|
D|-----------------------------------------------------------------|
A|-----------------------------------------------------------------|
D|-2---------------------------------------------------------------|
   1 e + a 2 e + a 3 e + a 4 e + a 1 e + a 2 e + a 3 e + a 4 e + a 

rest

3:54
G|-----------------------------------------------------------------|
D|-----------------------------------------------------------------|
A|-7---7-7-7---7-7-5---5---5---5---0-------0-----------------------|
D|-------------------------------------------------5-------4---4-4-|
   1 e + a 2 e + a 3 e + a 4 e + a 1 e + a 2 e + a 3 e + a 4 e + a 

G|-----------------------------------------------------------------|
D|-----------------------------------------------------------------|
A|-----------------5---5---5---5---3---3---3---3-3-3-3-3-3-3-3-3-3-|
D|-2-------2---2-2-------------------------------------------------|
   1 e + a 2 e + a 3 e + a 4 e + a 1 e + a 2 e + a 3 e + a 4 e + a 

G|-----------------------------------------14----------12------11--|
D|-------------------------------------14------14------------------|
A|-7---7---7---7---9-------10------0---------------10------9-------|
D|-----------------------------------------------------------------|
   1 e + a 2 e + a 3 e + a 4 e + a 1 e + a 2 e + a 3 e + a 4 e + a 

G|-----------------------------------------------------------------|
D|-----------------------------------------------------------------|
A|-----------------5---5---5---5---3-------3---3-3---3-3-3-3-3-3-3-|
D|-2---------------------------------------------------------------|
   1 e + a 2 e + a 3 e + a 4 e + a 1 e + a 2 e + a 3 e + a 4 e + a 

G|-----------------------------------------------------------------|
D|-----------------------------------------------------------------|
A|-7-------7---7---5-------5---5---3-------------------------------|
D|-----------------------------------------------------------------|
   1 e + a 2 e + a 3 e + a 4 e + a 1 e + a 2 e + a 3 e + a 4 e + a 

4:26
G|-----------------------------------------------------------------|
D|-----------------------------------------------------------------|
A|-7---7---7---7-7-5-------5---5-5-0-------0---0-------------------|
D|-------------------------------------------------5-------4---4-4-|
   1 e + a 2 e + a 3 e + a 4 e + a 1 e + a 2 e + a 3 e + a 4 e + a 

G|-----------------------------------------------------------------|
D|-----------------------------------------------------------------|
A|-----------------5-------5---5-5-3-----3-3---3-3---3-3-3-3-3-3-3-|
D|-2-------2-------------------------------------------------------|
   1 e + a 2 e + a 3 e + a 4 e + a 1 e + a 2 e + a 3 e + a 4 e + a 

G|-----------------------------------------------------------------|
D|-----------------------------------------------------------------|
A|-7---7---7---7-7-5---5---5---5-5-0-------0-----------------------|
D|-------------------------------------------------5-------4-------|
   1 e + a 2 e + a 3 e + a 4 e + a 1 e + a 2 e + a 3 e + a 4 e + a 

G|-----------------------------------------------------------------|
D|-----------------------------------------------------------------|
A|-----------------5-------5---5-5-3-----3-3---3-3---3-3---3-3-3-3-|
D|-2-------2---2-2-------------------------------------------------|
   1 e + a 2 e + a 3 e + a 4 e + a 1 e + a 2 e + a 3 e + a 4 e + a 

4:52
G|-----------------------------------------------------------------|
D|-----------------------------------------------------------------|
A|-7-------7---7-7-5-------5---5-5-3-----3-3-3-3-----3-3-3-3---3-3-|
D|-----------------------------------------------------------------|
   1 e + a 2 e + a 3 e + a 4 e + a 1 e + a 2 e + a 3 e + a 4 e + a 

G|-----------------------------------------------------------------|
D|---------------------------------------------10------10----------|
A|-7-------7---7---5-------5---5---3---/-10----------10------------|
D|---------------------------------------------------------5-4-5-7-|
   1 e + a 2 e + a 3 e + a 4 e + a 1 e + a 2 e + a 3 e + a 4 e + a 

G|-----------------------------------------------------------------|
D|-----------------------------------------------------------------|
A|-7-------7-------5-------5---5---3-----3-----3-----3-3---3-3-3-3-|
D|-----------------------------------------------------------------|
   1 e + a 2 e + a 3 e + a 4 e + a 1 e + a 2 e + a 3 e + a 4 e + a 

G|-----------------------------------------------------------------|
D|-----------------------------------------------------------------|
A|-7---------------5-------5-------3-------------------------------|
D|-----------------------------------------------------------------|
   1 e + a 2 e + a 3 e + a 4 e + a 1 e + a 2 e + a 3 e + a 4 e + a 

            
            
Suggest correction
Creating personal tab
Creating personal tab
You can edit any tab online and save it as your Personal.

You can edit, replace or remove any tab part or add personal notes – all changes will be seen only by you.

Personal tabs can be accessed anytime from any device, even offline.
Learn more »
Give kudos to tab author, rate the tab!
1 2 3 4 5
comments
print report bad tab
guest
You may want to rate the tab now too:
select rating
Wanna post a correction for this tab? Suggest correction