Oops, an error
Loading. Please wait.
We have an official So Far Away tab made by UG professional guitarists. Check out the tab »
×
454 views 12 this week
no commentswrite comment
1 2 3 4 5
2 more votes to show rating
add to favorites
×
Save as Personal and add changes to this tab that will be seen only by you. Learn more ›
launch autoscroll
font size
0
reset
how to read this tab
guitar tuner
backing track
0:00
0:00
Autoscroll
slow
fast
+/-
esc
set tempo
stop
Author
About this tab version
More detail on how to play the song. Was this info helpful? Yes No
Em
   Never feared for anything,
Em
   Never shamed but never free
    G                   D
A light that healed a broken
heart
     Bm11         C
With all that it could

Em
   Live the life so endlessly
Em9
    Saw beyond what others
   Em
see
    G                  D
I tried to heal your broken
heart
     Bm11        C
With all that I could

 C
Will you stay
 D
Will you stay away forever?
Primeira parte:|
    Em|
e|-0---0-0--0-0--0-0-0-0------|
B|-0---0-0--0-0--0-0-0-0------|
G|-0---0-0--0-0--0-0-0-0------|
D|-2---2-2--2-2--2-2-2-2------|
A|-2---2-2--2-2--2-2-2-2------|
E|-0---0-0--0-0--0-0-0-0------|
   ↓   ↓ ↑  ↑ ↓  ↓ ↑ ↓ ↑|


    G      D        Bm11
e|-3-3-3--2-2-2-2--0-0-0-0-0--|
B|-3-3-3--3-3-3-3--3-3-3-3-1--|
G|-0-0-0--2-2-2-2--4-4-4-4-0--|
D|-0-0-0--0-0-0-0--4-4-4-4-2--|
A|-2-2-2-----------2-2-2-2-3--|
E|-3-3-3----------------------|
   ↓ ↓ ↑  ↓ ↓ ↑ ↑  ↓ ↓ ↓ ↑ ↓

  C
e|0---0-0-0-0--|
B|1p3-3-1-1-1--|
G|0---0-0-0-0--|
D|2---2-2-2-2--|
A|3---3-3-3-3--|
E|-------------|
  ↑   ↓ ↑ ↓ ↑


    C        D9(11)|
e|-0-0-0-0--2-2-2-2--2-2------|
B|-1-1-1-1--3-3-3-3--3-3------|
G|-0-0-0-0--2-2-2-2--2-2------|
D|-2-2-2-2--0-0-0-0--0-0------|
A|-3-3-3-3--------------------|
E|----------------------------|
   ↓ ↓ ↓ ↓  ↓ ↓ ↑ ↑  ↓ ↑|


Refrão:
 Em                       G
How do I live without the ones
 I love?
 Am
Time still turns the pages of
      G          D
 the book, it's burned
  Em                  G
Place and time always on my
mind
   Am
I have so much to say but
            C     D
you're so far away
Refrão:|
    Em|
e|-0-0--0-0-0---0-0-0-0-------|
B|-0-0--0-0-0---0-0-0-0-------|
G|-0-0--0-0-0---0-0-0-0-------|
D|-2-2--2-2-2---2-2-2-2-------|
A|-2-2--2-2-2---2-2-2-2-------|
E|-0-0--0-0-0---0-0-0-0-------|
   ↓ ↓  ↑ ↑ ↓   ↓ ↑ ↓ ↑|


    G|
e|-3-3--3-3-3---3-3-3-3-------|
B|-3-3--3-3-3---3-3-3-3-------|
G|-0-0--0-0-0---0-0-0-0-------|
D|-0-0--0-0-0---0-0-0-0-------|
A|-2-2--2-2-2---2-2-2-2-------|
E|-3-3--3-3-3---3-3-3-3-------|
   ↓ ↓  ↑ ↑ ↓   ↓ ↑ ↓ ↑|


    Am|
e|-0-0--0-0-0---0-0-0-0-------|
B|-1-1--1-1-1---1-1-1-1-------|
G|-2-2--2-2-2---2-2-2-2-------|
D|-2-2--2-2-2---2-2-2-2-------|
A|-0-0--0-0-0---0-0-0-0-------|
E|----------------------------|
   ↓ ↓  ↑ ↑ ↓   ↓ ↑ ↓ ↑|


    G    D|
e|-3-3--2-2-2---2-2-2-2-------|
B|-3-3--3-3-3---3-3-3-3-------|
G|-0-0--2-2-2---2-2-2-2-------|
D|-0-0--0-0-0---0-0-0-0-------|
A|-2-2------------------------|
E|-3-3------------------------|
   ↓ ↓  ↓ ↑ ↓   ↓ ↑ ↓ ↑|


(variação)|
    C    D|
e|-0-0--2-2---2-2-2-2---------|
B|-1-1--3-3---3-3-3-3---------|
G|-0-0--2-2---2-2-2-2---------|
D|-2-2--0-0---0-0-0-0---------|
A|-3-3------------------------|
E|----------------------------|
   ↓ ↓  ↓ ↑   ↓ ↑ ↓ ↑|


(Guitarra)|
e|----------------------------|
B|----------------------------|
G|-9--7/9\7-------------7-----|
D|-----------9\7---7/5--------|
A|-7--5/7\5-------------5-----|
E|-----------7\5---5/3--------|

e|----------------------------|
B|----------------------------|
G|-9--7/9\7-------------------|
D|-x--x------9/12\7---7/9/10--|
A|-7--5/7\5--x----------------|
E|-----------7/12\5---5/7/8---|

e|-------------|
B|-------------|
G|-------------|
D|12-----------|
A|-------------|
E|10-----------|

Primeira Parte - com variação
na letra:
Em
   Plans of what our futures
hold
Em
   Foolish lies of growing old
    G                D
It seems we're so invincible
          Bm11       C
But the truth is so cold

Em
   A final song, our last
request
Em9
    Another chapter laid to
     Em
rest
 G               D
Now and then I try to find
    Bm11       C
A place in my mind
       C
Where you can stay
 D
You can stay awake forever
(Guitarra)
e|-0--0-0--0---3--------2-----|
B|-0--0-0--0----3-3---3--3--3-|
G|-0--0-0--0--0---0---2-----2-|
D|-2--2-2--2--0-----0---------|
A|-2--2-2--2------------------|
E|-0--0-0--0-3----------------|

e|-------------|
B|------1------|
G|----3-0------|
D|--4---2------|
A|2-----3------|
E|-------------|

e|-0--0---0-0---0--0-0--0--0-|
B|-1--1---1-1---1--1-3--3--3-|
G|-0--0---0-0---0--0-0--0--0-|
D|-2--2---2-2---2--2-4--4--4-|
A|-3--3---3-3---3--3-5--5--5-|
E|---------------------------|

e|0--0-0--------|
B|3--3-3--------|
G|0--0-0--------|
D|4--4-4--------|
A|5--5-5--------|
E|--------------|

Refrão:
 Em                       G
How do I live without the ones
 I love?
 Am
Time still turns the pages of
       C         D
 the book, it's burned
  Em                  G
Place and time always on my
mind
   Am
I have so much to say but
            C     D
you're so far away

Segunda Parte:
  E
Sleep tight
     C
I'm not afraid
    Am
The ones that we love are here
Em
 with me
 E
Lay away
    C
A place for me
           D
'Cause as soon as I'm done
            C
I'll be on my way
    D
To live eternally
Segunda Parte:
    E                 C
e|-0--0-0-0---0-0-0--0--0-0-0-|
B|-0--0-0-0---0-0-0--1--1-1-1-|
G|-1--1-1-1---1-1-1--0--0-0-0-|
D|-2--2-2-2---2-2-2--2--2-2-2-|
A|-2--2-2-2---2-2-2--3--3-3-3-|
E|-0--0-0-0---0-0-0-----------|
   ↓  ↑ ↑ ↓   ↑ ↑ ↓  ↓  ↑ ↑ ↓

e|-0-0-0-------|
B|-1-1-1-------|
G|-0-0-0-------|
D|-2-2-2-------|
A|-3-3-3-------|
E|-------------|
   ↑ ↑


    Am                G
e|-0--0-0-0---0-0-0--3--3-3-3-|
B|-1--1-1-1---1-1-1--3--3-3-3-|
G|-2--2-2-2---2-2-2--0--0-0-0-|
D|-2--2-2-2---2-2-2--0--0-0-0-|
A|-0--0-0-0---0-0-0--2--2-2-2-|
E|-------------------3--3-3-3-|
   ↓  ↑ ↑ ↓   ↑ ↑ ↓  ↓  ↑ ↑ ↓

e|-3-3-3-------|
B|-3-3-3-------|
G|-0-0-0-------|
D|-0-0-0-------|
A|-2-2-2-------|
E|-3-3-3-------|
   ↑ ↑ ↓


    D|
e|-2--2-2-2---2-2-2-----------|
B|-3--3-3-3---3-3-3-----------|
G|-2--2-2-2---2-2-2-----------|
D|-0--0-0-0---0-0-0-----------|
A|----------------------------|
E|----------------------------|
   ↓  ↑ ↑ ↓   ↑ ↑ ↓|


    C9
e|-3--3-3-3---3-3-3-3-3-3-3-2-|
B|-3--3-3-3---3-3-3-3-3-3-3---|
G|-0--0-0-0---0-0-0-0-0-0-0-2-|
D|-2--2-2-2---2-2-2-2-2-2-2---|
A|-3--3-3-3---3-3-3-3-3-3-3---|
E|----------------------------|
   ↓  ↑ ↑ ↓   ↑ ↑ ↓ ↓ ↑ ↓ ↑

    D
e|-2-2-2-2------|
B|3-3-3-3-3-----|
G|-2-2-2-2------|
D|0-0-0-0-0-----|
A|--------------|
E|--------------|
  ↓ ↑ ↓ ↑ ↓


e|-2-2-2-2-2---2-2-2-2--------|
B|-3-3-3-3-3---3-3-3-3--------|
G|-2-2-2-2-2---2-2-2-2--------|
D|-0-0-0-0-0---0-0-0-0--------|
A|----------------------------|
E|----------------------------|
   ↓ ↑ ↓ ↑ ↓   ↓ ↑ ↓ ↑|


(Guitarra)
   H.A.                .
e|--------------------------|
B|--------------------------|
G|-9~---4----------------9--|
D|---------7/9\7---5--5-----|
A|--------------------------|
E|--------------------------|

e|---------------|
B|----------10---|
G|-------12------|
D|10--12---------|
A|---------------|
E|---------------|


Base do Solo:|
    E|
e|-0-0--0-0-0---0-0-0-0-------|
B|-0-0--0-0-0---0-0-0-0-------|
G|-1-1--1-1-1---1-1-1-1-------|
D|-2-2--2-2-2---2-2-2-2-------|
A|-2-2--2-2-2---2-2-2-2-------|
E|-0-0--0-0-0---0-0-0-0-------|
   ↓ ↓  ↑ ↑ ↓   ↓ ↑ ↓ ↑|


    C|
e|-0-0--0-0-0---0-0-0-0-------|
B|-1-1--1-1-1---1-1-1-1-------|
G|-2-2--2-2-2---2-2-2-2-------|
D|-2-2--2-2-2---2-2-2-2-------|
A|-3-3--3-3-3---3-3-3-3-------|
E|----------------------------|
   ↓ ↓  ↑ ↑ ↓   ↓ ↑ ↓ ↑|


    Am|
e|-0-0--0-0-0---0-0-0-0-------|
B|-1-1--1-1-1---1-1-1-1-------|
G|-2-2--2-2-2---2-2-2-2-------|
D|-2-2--2-2-2---2-2-2-2-------|
A|-0-0--0-0-0---0-0-0-0-------|
E|----------------------------|
   ↓ ↓  ↑ ↑ ↓   ↓ ↑ ↓ ↑|


    G|
e|-3-3--3-3-3---0-0-0-0-------|
B|-3-3--3-3-3---3-3-3-3-------|
G|-0-0--0-0-0---2-2-2-2-------|
D|-0-0--0-0-0---0-0-0-0-------|
A|-2-2--2-2-2-----------------|
E|-3-3--3-3-3---2-2-2-2-------|
   ↓ ↓  ↓ ↑ ↓   ↓ ↑ ↓ ↑|


    E|
e|-0-0--0-0-0---0-0-0-0-------|
B|-0-0--0-0-0---0-0-0-0-------|
G|-1-1--1-1-1---1-1-1-1-------|
D|-2-2--2-2-2---2-2-2-2-------|
A|-2-2--2-2-2---2-2-2-2-------|
E|-0-0--0-0-0---0-0-0-0-------|
   ↓ ↓  ↑ ↑ ↓   ↓ ↑ ↓ ↑|


    C|
e|-0-0--0-0-0---0-0-0-0-------|
B|-1-1--1-1-1---1-1-1-1-------|
G|-2-2--2-2-2---2-2-2-2-------|
D|-2-2--2-2-2---2-2-2-2-------|
A|-3-3--3-3-3---3-3-3-3-------|
E|----------------------------|
   ↓ ↓  ↑ ↑ ↓   ↓ ↑ ↓ ↑|


    D|
e|-2-2-2--2-2-2-2-2--2-2-2-2--|
B|-3-3-3--3-3-3-3-3--3-3-3-3--|
G|-2-2-2--2-2-2-2-2--2-2-2-2--|
D|-0-0-0--0-0-0-0-0--0-0-0-0--|
A|----------------------------|
E|----------------------------|
   ↓ ↑ ↓  ↓ ↑ ↓ ↑ ↓  ↓ ↑ ↓ ↑|


    C9
e|-3--3-3-3---3-3-3-3-3-3-3-2-|
B|-3--3-3-3---3-3-3-3-3-3-3---|
G|-0--0-0-0---0-0-0-0-0-0-0-2-|
D|-2--2-2-2---2-2-2-2-2-2-2---|
A|-3--3-3-3---3-3-3-3-3-3-3---|
E|----------------------------|
   ↓  ↑ ↑ ↓   ↑ ↑ ↓ ↓ ↑ ↓ ↑

    D
e|-2-2-2--------|
B|3-3-3-3-------|
G|-2-2-2--------|
D|0-0-0-0-------|
A|--------------|
E|--------------|
  ↓ ↑ ↓ ↑ ↓


e|-2-2-2-2-2---2-2-2-2--------|
B|-3-3-3-3-3---3-3-3-3--------|
G|-2-2-2-2-2---2-2-2-2--------|
D|-0-0-0-0-0---0-0-0-0--------|
A|----------------------------|
E|----------------------------|
   ↓ ↑ ↓ ↑ ↓   ↓ ↑ ↓ ↑|


Solo:
e|---------------------------|
B|-------12b13r12------------|
G|----13----------12\-/14-16-|
D|-14------------------------|
A|---------------------------|
E|---------------------------|

e|--------------|
B|--------------|
G|14-9-12/-14---|
D|--------------|
A|--------------|
E|--------------|

e|----------------------------|
B|----------------------------|
G|-16b17r16p14b---------------|
D|----------------------------|
A|----------------------------|
E|----------------------------|

e|--------------------------|
B|-------12b13r12-----8/-15-|
G|----13----------12\-------|
D|-14-----------------------|
A|--------------------------|
E|--------------------------|

e|---------------|
B|15-17-17-18-15-|
G|---------------|
D|---------------|
A|---------------|
E|---------------|

e|--------------------|
B|-15--20b22r20-19-17-|
G|--------------------|
D|--------------------|
A|--------------------|
E|--------------------|

e|---------------------|
B|17b19r15-------------|
G|---------------------|
D|---------------------|
A|---------------------|
E|---------------------|

Refrão:
 Em                       G
How do I live without the ones
 I love?
 Am
Time still turns the pages of
       C         D
 the book, it's burned
 Em                    G
Place and time, always on my
mind
         Am
And the light you left remains
           C        D
But it so hard to stay
        Am
When I have so much to say
             C    D   Em
and you're so far away
Terceira Parte:
e|-0-----3p0-------2----3----|
B|-0-0-------0-0---3--3---3--|
G|-----0-----------0---------|
D|-----------------0---------|
A|---------------------------|
E|-0-----0-------------------|

e|--------------|
B|1--------1----|
G|2--2-------2--|
D|2----2--------|
A|0------0------|
E|--------------|

e|-7----5----3---0---3p0--2-|
B|-------------0---0--------|
G|--------------------------|
D|---0----0-----------------|
A|------------------------0-|
E|-3----2----0--------------|

e|5p2------------|
B|--------0------|
G|----2----------|
D|------4--------|
A|---------------|
E|---------------|

e|---0-3----------------------|
B|-0--------------------------|
G|----------------0-----------|
D|-------------2--2-2---------|
A|-3-----3--3--3--3-3---------|
E|----------------------------|

Em
   I love you
D9/F#
      You were ready
Am                G
   The pain is strong
D9/F#      Em   D9/F#   C9
and urges rise
Em
   But I see you
D9/F#
      When it lets me
Am               G
   Your pain is gone, your
    D9/F#    Em    D9/F#   C9
hands  untied
 Em  D9/F#  C9   Em
So  far   away      (And I
  D         C
needed to know)
 Em  D9/F#  C9   Em
So  far   away      (And I
  D                       C
need you to need you to know)
e|-0--0-0-0--0-0--------------|
B|-0--0-0-0--0-0--------------|
G|-0--0-0-0--0-0--------------|
D|-2--2-2-2--2-2--------------|
A|-2--2-2-2--2-2--------------|
E|-0--0-0-0--0-0--------------|


Solo:
e|---------------------------|
B|-/17---19--20--13--12--10--|
G|---------------------------|
D|---------------------------|
A|---------------------------|
E|---------------------------|

e|--------------|
B|12p10\8-------|
G|--------------|
D|--------------|
A|--------------|
E|--------------|

e|----------------------------|
B|-/11~-/16-16\9-9/12~--------|
G|----------------------------|
D|----------------------------|
A|----------------------------|
E|----------------------------|

e|---------------------------|
B|-/17---19--20--13--12--10--|
G|---------------------------|
D|---------------------------|
A|---------------------------|
E|---------------------------|

e|--------------|
B|12p10\8-------|
G|--------------|
D|--------------|
A|--------------|
E|--------------|

e|----------------------------|
B|-/11~-/16-16\9-9/12~--------|
G|----------------------------|
D|----------------------------|
A|----------------------------|
E|----------------------------|

e|----------------------------|
B|----------------------------|
G|-/12~-11~~--/16-16\9/12~----|
D|----------------------------|
A|----------------------------|
E|----------------------------|

e|-------------|
B|-------------|
G|-------------|  (2x)
D|-------------|
A|-------------|
E|-------------|

e|--------------------|
B|-/17--19--20--13----|
G|--------------------|
D|--------------------|
A|--------------------|
E|--------------------|

e|---------------------|
B|12b13r12-10--12p10\8-|
G|---------------------|
D|---------------------|
A|---------------------|
E|---------------------|

e|----------------------------|
B|----------------------------|
G|-/12~-11~~--/16-16\9/12~----|
D|----------------------------|
A|----------------------------|
E|----------------------------|

e|----------------------------|
B|--/17--19--20--13--15-17-15-|
G|----------------------------|
D|----------------------------|
A|----------------------------|
E|----------------------------|

e|-------------|
B|13-15-12-----|
G|-------------|
D|-------------|
A|-------------|
E|-------------|

e|----------------------------|
B|-12-13-10---12p10\8---------|
G|----------------------------|
D|----------------------------|
A|----------------------------|
E|----------------------------|

e|----------------------------|
B|----------------------------|
G|-/12~-11~~--/16-16\9/12~----|
D|----------------------------|
A|----------------------------|
E|----------------------------|

e|----------------------------|
B|----------------------------|
G|-/11~-/16-16\9-9/12~b14r12~-|
D|----------------------------|
A|----------------------------|
E|----------------------------|

e|----------------------------|
B|----------------------------|
G|-/12~-11~~--/16-16\9/12~----|
D|----------------------------|
A|----------------------------|
E|----------------------------|

e|-------------|
B|-------------|
G|-------------|  (3x)
D|-------------|
A|-------------|
E|-------------|

e|----------------------------|
B|----------------------------|
G|--/12--11b12r11--7/9~-9-----|
D|----------------------------|
A|----------------------------|
E|----------------------------|
Suggest correction
Give kudos to tab author, rate the tab!
1 2 3 4 5
comments
print report bad tab
guest
You may want to rate the tab now too:
select rating
Wanna post a correction for this tab? Suggest correction