Oops, an error
Loading. Please wait.

Streets tab

version 3
version 3

Whole song

Interactive

3,683 views 6 this week
3 commentsread comments
1 2 3 4 5
1 last vote to show rating
add to favorites
×
Save as Personal and add changes to this tab that will be seen only by you. Learn more ›
×
You can save this tab as Personal to edit and correct it or add notes. All changes will be seen only by you. Learn more »
launch autoscroll
font size
0
reset
how to read this tab
guitar tuner
edit
Autoscroll
slow
fast
+/-
esc
set tempo
stop
Author
-------------------------------------------------------------------------------
			     Streets - Avenged Sevenfold
-------------------------------------------------------------------------------
Tabbed by: Metalrawrr
		
Email: metalrawrr@hotmail.com

Tuning: Drop D
-e
-B
-G
-D
-A
-D


- The tab suits one guitarist only
- Do not care about how many integers, just play on!
- Enjoy! Feedback is welcome!



Intro
e|---------------------------------------------------------------------------|
B|---------------------------------------------------------------------------|
G|-2-------------------------------------------------------------------------|
D|-2-------------------------------------------------------------------------|
A|-0-------------------------------------------------------------------------|
D|---------------------------------------------------------------------------| x 1

e|---------------------------------------------------------------------------|
B|---------------------------------------------------------------------------|
G|-2---2-------2---10--10------10--5---5-------5---9---9-------9-------------|
D|-2---2-------2---10--10------10--5---5-------5---9---9-------9-------------|
A|-0-0-0-00000-0-0-8-8-8-88888-8-8-3-3-3-33333-3-3-7-7-7-77777-7-------------|
D|---------------------------------------------------------------------------| x 2   
     *   *****   *   *   *****   *   *   *****   *   *   *****
e|---------------------------------------------------------------------------|
B|---------------------------------------------------------------------------|
G|-2-------------------------------------------------------------------------|
D|-2-------------------------------------------------------------------------|
A|-0-------------------------------------------------------------------------|
D|---------------------------------------------------------------------------| x 1



Verse
e|---------------------------------------------------------------------------|
B|---------------------------------------------------------------------------|
G|-222222222222222-10101010101010-5555555555555555-9999999999999-------------|
D|-222222222222222-10101010101010-5555555555555555-9999999999999-------------|
A|-000000000000000-8-8-8-8-8-8-8--3333333333333333-7777777777777-------------|
D|---------------------------------------------------------------------------| x 4

e|---------------------------------------------------------------------------|
B|---------------------------------------------------------------------------|
G|-10101010101010-5555555555555555-9999999999999-222222222222222-------------|
D|-10101010101010-5555555555555555-9999999999999-222222222222222-------------|
A|-8-8-8-8-8-8-8--3333333333333333-7777777777777-000000000000000-------------|
D|---------------------------------------------------------------------------| (1)

e|---------------------------------------------------------------------------|
B|---------------------------------------------------------------------------|
G|-10101010101010-5555555555555555-999999999999999999------------------------|
D|-10101010101010-5555555555555555-999999999999999999------------------------|
A|-8-8-8-8-8-8-8--3333333333333333-777777777777777777------------------------|
D|---------------------------------------------------------------------------| (2)

(1) and (2)  x 2



Awesome Part         (10s - NOT 1s & 0s)
e|---------------------------------------------------------------------------|
B|---------------------------------------------------------------------------|
G|---------------------------------------------------------------------------|
D|-77777777-9/10-------------------------------------------------------------|
A|--------------88888-1010101010---------------------------------------------|
D|---------------------------------------------------------------------------| x 2

e|---------------------------------------------------------------------------|
B|---------------------------------------------------------------------------|
G|---------------------------------------------------------------------------|
D|-7-----------------9/10-3-----------3/5------------------------------------|
A|-7-----------------9/10-3-----------3/5------------------------------------|
D|-7-7-7-7-7-7-7-7-7-9/10-3-3-3-3-3-3-3/5-5-5-5-5-5--------------------------| x 1
     * * * * * * * *        * * * * *     * * * * *
e|---------------------------------------------------------------------------|
B|---------------------------------------------------------------------------|
G|---------------------------------------------------------------------------|
D|-5/7-----------------9/10-3-----------3/5----------------------------------|
A|-5/7-----------------9/10-3-----------3/5----------------------------------|
D|-5/7-7-7-7-7-7-7-7-7-9/10-3-3-3-3-3-3-3/5-5-5-5-5-5------------------------| x 1
       * * * * * * * *        * * * * *     * * * * *


Halfway!
e|---------------------------------------------------------------------------|
B|---------------------------------------------------------------------------|
G|---------------------------------------------------------------------------|
D|-7-7-7-7-7-7-3-3-3-3-3-3-10-10-10-10-10-10-5-5-5-5-5-5---------------------|
A|-7-7-7-7-7-7-3-3-3-3-3-3-10-10-10-10-10-10-5-5-5-5-5-5---------------------|
D|-7-7-7-7-7-7-3-3-3-3-3-3-10-10-10-10-10-10-5-5-5-5-5-5---------------------| x 1

e|---------------------------------------------------------------------------|
B|---------------------------------------------------------------------------|
G|---------------------------------------------------------------------------|
D|-7-7-7-7-7-7-3-3-3-3-3-3-10-10-10-10-10-10-14-14-14-14-14-14---------------|
A|-7-7-7-7-7-7-3-3-3-3-3-3-10-10-10-10-10-10-14-14-14-14-14-14---------------|
D|-7-7-7-7-7-7-3-3-3-3-3-3-10-10-10-10-10-10-14-14-14-14-14-14---------------| x 1



Verse Again
e|---------------------------------------------------------------------------|
B|---------------------------------------------------------------------------|
G|-222222222222222-10101010101010-5555555555555555-9999999999999-------------|
D|-222222222222222-10101010101010-5555555555555555-9999999999999-------------|
A|-000000000000000-8-8-8-8-8-8-8--3333333333333333-7777777777777-------------|
D|---------------------------------------------------------------------------| x 4

e|---------------------------------------------------------------------------|
B|---------------------------------------------------------------------------|
G|-10101010101010-5555555555555555-9999999999999-222222222222222-------------|
D|-10101010101010-5555555555555555-9999999999999-222222222222222-------------|
A|-8-8-8-8-8-8-8--3333333333333333-7777777777777-000000000000000-------------|
D|---------------------------------------------------------------------------| (1)

e|---------------------------------------------------------------------------|
B|---------------------------------------------------------------------------|
G|-10101010101010-5555555555555555-999999999999999999------------------------|
D|-10101010101010-5555555555555555-999999999999999999------------------------|
A|-8-8-8-8-8-8-8--3333333333333333-777777777777777777------------------------|
D|---------------------------------------------------------------------------| (2)

(1) and (2) x 2



Awesome Part again   (10s - NOT 1s & 0s)
e|---------------------------------------------------------------------------|
B|---------------------------------------------------------------------------|
G|---------------------------------------------------------------------------|
D|-77777777-9/10-------------------------------------------------------------|
A|--------------88888-1010101010---------------------------------------------|
D|---------------------------------------------------------------------------| x 4

e|---------------------------------------------------------------------------|
B|---------------------------------------------------------------------------|
G|---------------------------------------------------------------------------|
D|-7-----------------9/10-3-----------3/5------------------------------------|
A|-7-----------------9/10-3-----------3/5------------------------------------|
D|-7-7-7-7-7-7-7-7-7-9/10-3-3-3-3-3-3-3/5-5-5-5-5-5--------------------------| x 1
     * * * * * * * *        * * * * *     * * * * *
e|---------------------------------------------------------------------------|     
B|---------------------------------------------------------------------------|     
G|---------------------------------------------------------------------------|     
D|-5/7-----------------9/10-3-----------3/5----------------------------------|     
A|-5/7-----------------9/10-3-----------3/5----------------------------------|     
D|-5/7-7-7-7-7-7-7-7-7-9/10-3-3-3-3-3-3-3/5-5-5-5-5-5------------------------| x 3 
       * * * * * * * *        * * * * *     * * * * *

e|-------------------|
B|-------------------|
G|-------------------|
D|-5/7---------------| 
A|-5/7---------------| 
D|-5/7---------------| x 1



************************************

| *   Palm Mute
| /   slide up
| \   slide down
| h   hammer-on
| p   pull-off
| ~   vibrato
| +   harmonic
| x   Mute note
| b   Bend
| pb  Pre-bend
| br  Bend release
| pbr Pre-bend release
| brb Bend release bend

************************************

            
            
Suggest correction
Creating personal tab
Creating personal tab
You can edit any tab online and save it as your Personal.

You can edit, replace or remove any tab part or add personal notes – all changes will be seen only by you.

Personal tabs can be accessed anytime from any device, even offline.
Learn more »
Give kudos to tab author, rate the tab!
1 2 3 4 5
There is a new version of this tab from 6 days ago which you may like more. Go check it out:
comments
print report bad tab
3 comments total.
0 reply
Metalrawrr 71 May 30, 2010 12:51 PM

I want comments! :)

0 reply
Avengedd7foldd 51 Nov 02, 2011 01:14 PM

pretty awesome dude haha 5*

+1 reply
SGTCloudrunner 10 Nov 24, 2011 05:42 PM

Imo, it's kinda pointless to play this in Drop D.

guest
You may want to rate the tab now too:
select rating
Wanna post a correction for this tab? Suggest correction