Oops, an error
Loading. Please wait.

Strength Of The World intro tab

version 3
version 3
11,447 views 1 this week
3 commentsread comments
1 2 3 4 5
x 14
add to favorites
×
Save as Personal and add changes to this tab that will be seen only by you. Learn more ›
×
You can save this tab as Personal to edit and correct it or add notes. All changes will be seen only by you. Learn more »
launch autoscroll
font size
0
reset
how to read this tab
guitar tuner
backing track
0:00
0:00
edit
Autoscroll
slow
fast
+/-
esc
set tempo
stop
Hey, I'm Matt Gallant, I tabbed this a while ago. It sounds pretty effing close to me. 
er' out. Happy Playing
Acoustic

E----1------1------------1-----1----3-3h5p3--3------------3----------3---|
B------3------3------------3-----3-------------3------------3----------3-|
G--------2------2------------2--------------------0--0---------0--0------|
D---------------------------------------------------0--0---------0--0----|
A------------------------------------------------------------------------|
D--0----------------0-0--------------------------------------------------|

the starting of the electric
E-------------------------------------------------------------------------|
B-------------------------------------------------------------------------|
G-------------------------------------------------------------------------|
D---------7--------7--------7-----------------5---------------------------|
A------5-----8--5-----8--5-----8/10--8--7--5--5---------------------------|
D---0-----------------------------------------5---------------------------|

            
            
Suggest correction
Creating personal tab
Creating personal tab
You can edit any tab online and save it as your Personal.

You can edit, replace or remove any tab part or add personal notes – all changes will be seen only by you.

Personal tabs can be accessed anytime from any device, even offline.
Learn more »
comments
print report bad tab
3 comments total.
0 reply
Beelzboss 10 Aug 27, 2009 06:42 AM

WRONG.

0 reply
jake420024 10 Feb 06, 2011 01:13 AM

pretty close but this is what i got out of it

E---1---1-----1---1---3-3/5-3------3-3-----3--]
B----3---3-----3---3---------3----3-3-3---3-3-]
G-----2---2-----2-------------0--0-----0-0----]
D----------0-------------------0--------0-----]
A---------------------------------------------]
D-0---------0---------------------------------]

0 reply
vinniepig 10 Jan 08, 2014 04:40 AM

Up until the slide I play this

E--------------------------------]
B---6-----6---------6-----6---6--]
G-----7-----7---7-----7-----7----]
D-------------7------------------]
A-5-----5---------5-----5--------]
D--------------------------------]

guest
Wanna post a correction for this tab? Suggest correction