Oops, an error
Loading. Please wait.

Sunny Disposition intro tab

version 1
version 1

Intro

  • This is only the intro, if anyone wants to help co... Show more

Whole song

Interactive

5,137 views 42 this week
6 commentsread comments
1 2 3 4 5
x 8
add to favorites
×
Save as Personal and add changes to this tab that will be seen only by you. Learn more ›
×
You can save this tab as Personal to edit and correct it or add notes. All changes will be seen only by you. Learn more »
launch autoscroll
font size
0
reset
how to read this tab
guitar tuner
edit
Autoscroll
slow
fast
+/-
esc
set tempo
stop
About this tab version
This is only the intro, if anyone wants to help contribute to tabbing the rest of the song hmu. Was this info helpful? Yes No
[A]

e|-------------------------|---------------------------------|
B|-------------------------|---------------------------------|
G|-7---7-7-7-7-10----14----|-13---13-13-13-13-13---13-13---\-|
D|-x---x-x-x-x-x-----x-----|-x----x--x--x--x--x----x--x------|
A|-5---5-5-5-5-8-----12----|-11---11-11-11-11-11---11-11---\-|
D|-------------------------|---------------------------------|

e|-------------------------|-----------------------------|
B|-------------------------|-----------------------------|
G|-7---7-7-7-7-10----14----|-13-----16-----19-----22---\-|
D|-x---x-x-x-x-x-----x-----|-x------x------x------x------|
A|-5---5-5-5-5-8-----12----|-11-----14-----17-----20---\-|
D|-------------------------|-----------------------------|


[B]

e|-------------------------|---------------------------------|
B|-------------------------|---------------------------------|
G|-7---7-7-7-7-10----14----|-13---13-13-13-13-13---13-13---\-|
D|-x---x-x-x-x-x-----x-----|-x----x--x--x--x--x----x--x------|
A|-5---5-5-5-5-8-----12----|-11---11-11-11-11-11---11-11---\-|
D|-------------------------|---------------------------------|

e|-------------------------|-------------------------|
B|-------------------------|-------------------------|
G|-7---7-7-7-7-10----14----|-------------------------|
D|-x---x-x-x-x-x-----x-----|-8-7---6-----3---2---1---|
A|-5---5-5-5-5-8-----12----|-8-7---6-----3---2---1---|
D|-------------------------|-8-7---6---0-3---2---1---|

Repeat [A] x2


************************************

| x   Dead note
| \   Slide down

************************************

            
            
Suggest correction
Creating personal tab
Creating personal tab
You can edit any tab online and save it as your Personal.

You can edit, replace or remove any tab part or add personal notes – all changes will be seen only by you.

Personal tabs can be accessed anytime from any device, even offline.
Learn more »
comments
print report bad tab
6 comments total. Showing first comments.
0 reply
Roqua_99 43 Dec 13, 2016 02:41 AM

Thanks. But we need MOAR!

0 reply
tonitogli 20 Dec 18, 2016 05:27 PM

I think this is the "correct intro".

e|----------------------------------|
B|----------------------------------|
G|7--7-7-7-7--10-14--13--13-13-13-11|
D|X--X-X-X-X--Xx-xX--xX--xX-xx-xX-xx|
A|5--5-5-5-5--8--12--11--11-11-11-11|
D|----------------------------------|

e|------------------------------|
B|------------------------------|
G|7--7-7-7-7--10--14-13-16-19-22|
D|X--X-X-X-X--X---X--X--X--X--Xx|
A|5--5-5-5-5--8---12-11-14-17-20|
D|------------------------------|

e|----------------------------------|
B|----------------------------------|
G|7--7-7-7-7--10-14--13--13-13-13-11|
D|X--X-X-X-X--xX-xX--xX--xX-xx-Xx-xx|
A|5--5-5-5-5--8--12--11--11-11-11-11|
D|----------------------------------|

e|-----------------|
B|-----------------|
G|7--7-7-7-7-----14|
D|x--x-x-x-x--x--xx|
A|5--5-5-5-5--8--12|
D|-----------------|

I´m not sure...
e|------------|
B|------------|
G|------------|
D|------------|
A|9-8-7--6-3-0|
D|9-8-7--6-3-0|

0 reply
FatLeeGates 778 Dec 28, 2016 12:44 AM

the ending is like this
e|--------------------|
B|--------------------|
G|--------------------|
D|-8-7--6----3--2--1--|
A|-8-7--6--0-3--2--1--|
D|-8-7--6--0-3--2--1--|

guest
You may want to rate the tab now too:
select rating
Wanna post a correction for this tab? Suggest correction