Oops, an error
Loading. Please wait.

Synyster Gates Master Class solo tab

18,093 views 75 this week
5 commentsread comments
1 2 3 4 5
x 12
add to favorites
×
Save as Personal and add changes to this tab that will be seen only by you. Learn more ›
×
You can save this tab as Personal to edit and correct it or add notes. All changes will be seen only by you. Learn more »
launch autoscroll
font size
0
reset
how to read this tab
guitar tuner
edit
Autoscroll
slow
fast
+/-
esc
set tempo
stop
Author
Difficulty
Tabbed by: Matt Mayuiers
E-mail: mrcereal95@hotmail.com
Tuning: Standard

(1:00- 1:19) 
[Intro]
e|------7------7-----7-----7-----7-----7-----7------------------------------------------| 
B|---------10-----8-----7-----------------------7---8-----------------------------------|
G|----------------------------9-----7-----9---------------------------------------------|  x5
D|--------------------------------------------------------------------------------------|
A|--------------------------------------------------------------------------------------|
E|--------------------------------------------------------------------------------------|

(1:20- 1:27)
[Verse 1]
e|---------------------------------------------------------------------------|
B|---------------------------------------------------------------------------|
G|----9-(whammy harmonic)-------------7--9--9---(whammy harmonic)------------|
D|------------------------------7--9-----------------------------------------|
A|---------------------------------------------------------------------------|
E|---------------------------------------------------------------------------|

e|---------------------------------------------------------------------------|
B|---------------------------------------------------------------------------|
G|-----------------4--5---5--(whammy harmonic)-------------------------------|  x2
D|-------4--5--7--------------------------------5---5------------------------|
A|---7-----------------------------------------------------------------------|
E|---------------------------------------------------------------------------|

e|-----------------------------------5--7--------------------------------------|
B|---------------------------5---8---------------------------------------------|
G|-----------------4--5--7-----------------------------------------------------|
D|-------4--5--7---------------------------------------------------------------|
A|---7-------------------------------------------------------------------------|
E|-----------------------------------------------------------------------------|

(1:28- 1:34)
                                                                                   t               b   v 
e|--------------------------12--14-15-14-12------19-p-15-----------------------15--19-20-19-15-------------|
B|----------------------12------------------12----------17----------------17------------------17----17--17-|
G|-------------9-11-12------------------------------------16----------16-------------------------16--------|
D|----------9-----------------------------------------------17----17---------------------------------------|
A|--7-9-10-----------------------------------------------------19------------------------------------------|
E|---------------------------------------------------------------------------------------------------------|

(1:35-1:40)
                                                                                       t     
e|--19-17-15----------------------------------------------------------14-15-17------------------------------|
B|------------19-17-15-------------------------19-----------14-15-17-----------15-p-13-12-10----------------|
G|----------------------19-17-16---------------------14-16-----------------------------------16-p-14-p-12-11|
D|--------------------------------19-17-16------------------------------------------------------------------|
A|-----------------------------------------19---------------------------------------------------------------|
E|----------------------------------------------------------------------------------------------------------|

   t
e|---------------------------------------------------------------------------|
B|---------------------------------------------------------------------------|
G|-16-p-14-p-12--------------------------------------------------------------|
D|---------------------------------------------------------------------------|
A|---------------------------------------------------------------------------|
E|---------------------------------------------------------------------------|

[Chorus tapping section #1]
(1:41-1:49)

   All tapping
           t                t                 t                 tap harmonic
e|---------------------------------------------------------------------------|
B|---------------------------------------------------------------------------|
G|--2-h-4-12-p-5-p-4-p-2----10-p-2-h-4-p-2----12-p-2-h-4-p-2-----13(4)-------| x2
D|---------------------------------------------------------------------------|
A|---------------------------------------------------------------------------|
E|---------------------------------------------------------------------------|

           t                 t                t               t                t    t
e|----------------------------------------------------------------------------------------------------------|
B|----------------------------------------------------------------------------------------------------------|
G|--2-h-4-12-p-5-p-4-p-2----10-p-2-h-4-p-2---12-p-2-h-4-p-2---14-p-2-h-4-p-2---16-h-17-p-5-p-4-p-2----------|
D|----------------------------------------------------------------------------------------------------------|
A|----------------------------------------------------------------------------------------------------------|
E|----------------------------------------------------------------------------------------------------------|
                                                  tap harmonic  
e|----------------------------------------------------------------------------------------------------------|
B|----------------------------------------------------------------------------------------------------------|
G|--14-h-16-p-5-p-4-p-2------2-h-4-p-2-h-4-p-2---13-(4)-----------------------------------------------------|
D|----------------------------------------------------------------------------------------------------------|
A|----------------------------------------------------------------------------------------------------------|
E|----------------------------------------------------------------------------------------------------------|

[8 finger tapping]
(1:50- 1:54)    
(1:59-2:02)

(Instructions. Capo 5th fret on the e,B,and G strings with pinky finger, as displayed in video. With your 
Ring, Middle and Pointer fingers do the pull of/hammer on's. And with your picking hand do the Taps. 
Almost try to arrpegiat/sweep the taps. 
Do all of the tapping at the same Speed as Synyster gates does it)

         t          t            t                  t             t          t      
e|---------7-p-5---------------------------------------7-p-5------------------------------------------------|
B|------17--p-8--p-5--------------------------------17--p-8--p-5--------------------------------------------|
G|-------------------16-p-9-p-5-----------------------------------16-p-9-p-5--------------------------------|
D|-------------------------------17------------------------------------------17-----------------------------|
A|----------------------------------------------------------------------------------------------------------|
E|----------------------------------------------------------------------------------------------------------|

         t
e|---------7-p-5--------------------------------------------------------------------------------------------|
B|------19--p-8--p-5----------------------------------------------------------------------------------------|
G|---------------------9-p-5--------------------------------------------------------------------------------|
D|----------------------------------------------------------------------------------------------------------|
A|----------------------------------------------------------------------------------------------------------|
E|----------------------------------------------------------------------------------------------------------|

         t          t            t                   t             t         t     
e|---------7-p-5---------------------------------------7-p-5------------------------------------------------|
B|------17--p-8--p-5--------------------------------17--p-8--p-5--------------------------------------------|
G|-------------------16-p-9-p-5-----------------------------------16-p-9-p-5--------------------------------|
D|-------------------------------17------------------------------------------17-----------------------------|
A|----------------------------------------------------------------------------------------------------------|
E|----------------------------------------------------------------------------------------------------------|

       t                         t                           t
e|---------7-p-5--------------------7--p--5--------------------7--p--5--------------------------------------|
B|-----19---p-8--p-5-------------20---p-8--p-5--------------17---p-8--p-5-----------------------------------|
G|--------------------9-p-5---------------------9-p-5----------------------9-p-5----------------------------|
D|----------------------------------------------------------------------------------------------------------|
A|----------------------------------------------------------------------------------------------------------|
E|----------------------------------------------------------------------------------------------------------|

        t   t     t
e|-------------------7-p-5----------------------------------------------------------------------------------|
B|-----17-h-19-p-17---p-8--p-5------------------------------------------------------------------------------|
G|------------------------------9-h-11-p-9-p-5--------------------------------------------------------------|
D|----------------------------------------------------------------------------------------------------------|
A|----------------------------------------------------------------------------------------------------------|
E|----------------------------------------------------------------------------------------------------------|

(1:55- 1:58)
(2:03- 2:07)

      t         t          t          t
e|-----------------------------------19-p-14---14-h-18-p-14-------------------------------------------------|
B|------------------------19--p--16-------------------------------------------------------------------------|
G|-------------20--p--15------------------------------------------------------------------------------------|
D|---20--p-16-----------------------------------------------------------------------------------------------|
A|----------------------------------------------------------------------------------------------------------|
E|----------------------------------------------------------------------------------------------------------|

      t         t         t          t          t
e|---------------------------------------------19-p-14---14-h-18-p-14---------------------------------------|
B|----------------------------------19--p--16---------------------------------------------------------------|
G|-----------------------20--p--15--------------------------------------------------------------------------|
D|-------------20--p-16-------------------------------------------------------------------------------------|
A|--18--p--13-----------------------------------------------------------------------------------------------|
E|----------------------------------------------------------------------------------------------------------|

[repeat whole 8 finger tapping section] x2
         
[Intro/verse]
(2:08- 2:24)
e|------7------7-----7-----7-----7-----7-----7------------------------------------------| 
B|---------10-----8-----7-----------------------7---8-----------------------------------|
G|----------------------------9-----7-----9---------------------------------------------|  x5
D|--------------------------------------------------------------------------------------|
A|--------------------------------------------------------------------------------------|
E|--------------------------------------------------------------------------------------|

[Verse 2]
(sweeping section)
(2:24-2:29)
e|---------7--12--7--12-S--15-S--12---7-------------------------------------------------------------|
B|------8--------------------------------8----------------------------------------------------------|
G|---9--------------------------------------9-------------------------------------------------------|  x4
D|--------------------------------------------------------------------------------------------------|
A|--------------------------------------------------------------------------------------------------|
E|--------------------------------------------------------------------------------------------------|

(Blistering fast fill in between sweeps)
e|-------------------10--12---------------------------------------------------------------------------------|
B|-----------10--12-----------------------------------------------------------------------------------------|
G|---9--12--------------------------------------------------------------------------------------------------|
D|----------------------------------------------------------------------------------------------------------|
A|----------------------------------------------------------------------------------------------------------|
E|----------------------------------------------------------------------------------------------------------|

(Sweep) 
(2:29- 2:32)
e|---------12--17--12--17-S--20-S--17---12-----------------------------------------------------|
B|------13---------------------------------13--------------------------------------------------|
G|---14---------------------------------------14-----------------------------------------------|  x4
D|---------------------------------------------------------------------------------------------|
A|---------------------------------------------------------------------------------------------|
E|---------------------------------------------------------------------------------------------|

(2:33- 2:38)
(sweep)
e|---12--p--7--------------------------------------7---------15-p-12-----------------------------12--------|
B|-------------8--------------------------------8-------------------12-------------------------12----------|
G|----------------9--------------------------9------------------------12---------------------12------------|
D|-------------------9--------------------9-----------------------------14-----------------14--------------|
A|----------------------10--p--7--h--10-----------------------------------14-------------14----------------|
E|---------------------------------------------------------------------------15-p-12-h-15------------------|

(Sweep)
                                                                      b   b
e|--19--p--15-----------------------------------------------17-19-20--22--22-------------------------------|
B|------------17----------------------------------16-17-19-------------------------------------------------|
G|---------------16---------------------16-17-19-----------------------------------------------------------|
D|------------------17---------------17--------------------------------------------------------------------|
A|---------------------19--p-15-h-19-----------------------------------------------------------------------|
E|---------------------------------------------------------------------------------------------------------|

(2:39-2:45)
e|---20-19-17-------------------------------------------------------------17-19-20------------------------|
B|------------20-19-17--19-17-16---------------------------------17-19-20---------------------------------|
G|-------------------------------17-16-----------------16-17-19-------------------------------------------|
D|-------------------------------------19-17-16-----17----------------------------------------------------|
A|----------------------------------------------19--------------------------------------------------------|
E|--------------------------------------------------------------------------------------------------------|

                                   b
e|----------------------17-19-20---20----------------14--15--17-----17-15-14--------------------------------|
B|------------17-19-20-------------------------------------------------------17-15-13-----------------------|
G|--16-17-19--------------------------------------------------------------------------16-14-9-7-5-4---------|
D|----------------------------------------------------------------------------------------------------4-----|
A|----------------------------------------------------------------------------------------------------------|
E|----------------------------------------------------------------------------------------------------------|

(chorus tapping section #2)
(2:46- 2:53)

           t                t                 t                 tap harmonic
e|---------------------------------------------------------------------------|
B|---------------------------------------------------------------------------|
G|--2-h-4-12-p-5-p-4-p-2----10-p-2-h-4-p-2----12-p-2-h-4-p-2-----13(4)-------| x2
D|---------------------------------------------------------------------------|
A|---------------------------------------------------------------------------|
E|---------------------------------------------------------------------------|

           t                 t                t               t                t    t
e|----------------------------------------------------------------------------------------------------------|
B|----------------------------------------------------------------------------------------------------------|
G|--2-h-4-12-p-5-p-4-p-2----10-p-2-h-4-p-2---12-p-2-h-4-p-2---14-p-2-h-4-p-2---16-h-17-p-5-p-4-p-2----------|
D|----------------------------------------------------------------------------------------------------------|
A|----------------------------------------------------------------------------------------------------------|
E|----------------------------------------------------------------------------------------------------------|
                                                  tap harmonic  
e|----------------------------------------------------------------------------------------------------------|
B|----------------------------------------------------------------------------------------------------------|
G|--14-h-16-p-5-p-4-p-2------2-h-4-p-2-h-4-p-2---13-(4)-----------------------------------------------------|
D|----------------------------------------------------------------------------------------------------------|
A|----------------------------------------------------------------------------------------------------------|
E|----------------------------------------------------------------------------------------------------------|

(eight finer tapping)  
(2:54 2:58)
(3:03 3:07)
         t          t            t                  t             t          t      
e|---------7-p-5---------------------------------------7-p-5------------------------------------------------|
B|------17--p-8--p-5--------------------------------17--p-8--p-5--------------------------------------------|
G|-------------------16-p-9-p-5-----------------------------------16-p-9-p-5--------------------------------|
D|-------------------------------17------------------------------------------17-----------------------------|
A|----------------------------------------------------------------------------------------------------------|
E|----------------------------------------------------------------------------------------------------------|

         t
e|---------7-p-5--------------------------------------------------------------------------------------------|
B|------19--p-8--p-5----------------------------------------------------------------------------------------|
G|---------------------9-p-5--------------------------------------------------------------------------------|
D|----------------------------------------------------------------------------------------------------------|
A|----------------------------------------------------------------------------------------------------------|
E|----------------------------------------------------------------------------------------------------------|

         t          t            t                   t             t         t     
e|---------7-p-5---------------------------------------7-p-5------------------------------------------------|
B|------17--p-8--p-5--------------------------------17--p-8--p-5--------------------------------------------|
G|-------------------16-p-9-p-5-----------------------------------16-p-9-p-5--------------------------------|
D|-------------------------------17------------------------------------------17-----------------------------|
A|----------------------------------------------------------------------------------------------------------|
E|----------------------------------------------------------------------------------------------------------|

       t                         t                           t
e|---------7-p-5--------------------7--p--5--------------------7--p--5--------------------------------------|
B|-----19---p-8--p-5-------------20---p-8--p-5--------------17---p-8--p-5-----------------------------------|
G|--------------------9-p-5---------------------9-p-5----------------------9-p-5----------------------------|
D|----------------------------------------------------------------------------------------------------------|
A|----------------------------------------------------------------------------------------------------------|
E|----------------------------------------------------------------------------------------------------------|

(2:59- 3:02)
(3:08- 3:13)
        t   t     t
e|-------------------7-p-5----------------------------------------------------------------------------------|
B|-----17-h-19-p-17---p-8--p-5------------------------------------------------------------------------------|
G|------------------------------9-h-11-p-9-p-5--------------------------------------------------------------|
D|----------------------------------------------------------------------------------------------------------|
A|----------------------------------------------------------------------------------------------------------|
E|----------------------------------------------------------------------------------------------------------|

      t         t          t          t
e|-----------------------------------19-p-14---14-h-18-p-14-------------------------------------------------|
B|------------------------19--p--16-------------------------------------------------------------------------|
G|-------------20--p--15------------------------------------------------------------------------------------|
D|---20--p-16-----------------------------------------------------------------------------------------------|
A|----------------------------------------------------------------------------------------------------------|
E|----------------------------------------------------------------------------------------------------------|

      t         t         t          t          t
e|---------------------------------------------19-p-14---14-h-18-p-14---------------------------------------|
B|----------------------------------19--p--16---------------------------------------------------------------|
G|-----------------------20--p--15--------------------------------------------------------------------------|
D|-------------20--p-16-------------------------------------------------------------------------------------|
A|--18--p--13-----------------------------------------------------------------------------------------------|
E|----------------------------------------------------------------------------------------------------------|

(repeat 8 finger tapping section) x2

[Verse 3]
(ballad section)

(3:14-3:23)
                                                     v     
e|----------------------------------------------------------------------------------------------------------|
B|-----10--s--12--10--8--7--5-------------------------------------------------------------------------------|
G|-----------------------------4--7-p-4---7-p-4--7-p-4------------------------------------------------------|
D|----------------------------------------------------------------------------------------------------------|
A|----------------------------------------------------------------------------------------------------------|
E|----------------------------------------------------------------------------------------------------------|
     
(3:24- 3:35)
                    B           B   B  
e|-----------------------------------------------------------12--15---14--12-----------------------------|
B|-----10--s--12--12--8-s--5---5---5-s-8---7--------------12------------------12-------------------------|
G|-----------------------------------------------------12------------------------------------------------|
D|--------------------------------------------------14---------------------------------------------------|
A|-------------------------------------------------------------------------------------------------------|
E|-------------------------------------------------------------------------------------------------------|

(3:36- 3:45)
                                   b       b                       b                 b 
e|-----------12--15---14--12-------------------------------------------------------------------------------|
B|--------12------------------12---12--12--12-12------12--s-x--s--10--10--8--10--10------------------------|
G|-----12----------------------------------------------------------------------------9---------------------|
D|--14-----------------------------------------------------------------------------------------------------|
A|---------------------------------------------------------------------------------------------------------|
E|---------------------------------------------------------------------------------------------------------|

(3:46- 3:55)
                                      b            b                                b                 b
e|-----------------------------------12-----------12----------12-h-14--12-----------------------------------|
B|----------10--s--12-------------------------12----------12------------------12---13(15)-------------------|
G|------------------------11-h-12------------------------------------------------------------12--14--14-----|
D|--9-h-10--------------------------------------------------------------------------------------------------|
A|----------------------------------------------------------------------------------------------------------|
E|----------------------------------------------------------------------------------------------------------|

3:56- 4:02
    b         b                           v             b         b
e|----------------------------10-12-14-15-19--------------------------------12-14-15-17-19-17-15-14---------|
B|--15-p-12--15-----------12----------------------------15-p-12---15-----12---------------------------------|
G|---------14--------------------------------------------------14-------------------------------------------|
D|----------------------------------------------------------------------------------------------------------|
A|----------------------------------------------------------------------------------------------------------|
E|----------------------------------------------------------------------------------------------------------|

(4:03- 4:10) 
                                       t    t    t            t 
     b                                       
e|----------------------------------------7-h-10---19-p-17-p-15-p-12-p-7------15-p-12-p-7-------------------|
B|--------------------------------8-h-10--------------------------------------------------------------------|
G|---9---------------------7-h-9----------------------------------------------------------------------------|
D|------------------7-h-9-----------------------------------------------------------------------------------|
A|-----------7-h-10-----------------------------------------------------------------------------------------|
E|----------------------------------------------------------------------------------------------------------|

      t    t                           b
e|----------------------------------------------------------------------------------------------------------|
B|---17-p-15-p-12-p-8---------------------------------------------------------------------------------------|
G|------------------------16-p--12-p--9-----s-9--7----------------------------------------------------------|
D|--------------------------------------------------9--7----------------------------------------------------|
A|----------------------------------------------------------------------------------------------------------|
E|----------------------------------------------------------------------------------------------------------|

(Sweep)
(4:11- 4:13)
e|-------------------------------------12-h-17-h-20-p-17-p-12-------------------------|
B|----------------------------13-h-17-------------------------13----------------------|
G|--------------------14-h-17------------------------------------14-------------------| x2
D|----------------14------------------------------------------------14----------------|
A|---12-h-15-h-19------------------------------------------------------15-p-12-h-15---|
E|-12---------------------------------------------------------------------------------|

e|-------------------------------------12-h-17-h-19-p-17-p-12-------------------------|
B|----------------------------13-h-17-------------------------13----------------------|
G|--------------------14-h-17------------------------------------14-------------------|x2
D|----------------14------------------------------------------------14----------------|
A|---10-h-15-h-19------------------------------------------------------14-p-1-h-14----|
E|-12---------------------------------------------------------------------------------|

(Sweep) 
(4:14- 4:19)
e|----14--p--11----------------11-----11--p--8------------8----11--p--9-------------------------------------|
B|--------------12----------12-----------------9--------9---------------10----------------------------------|
G|-----------------11----11----------------------9----9--------------------9--------------------------------|
D|--------------------13---------------------------11-------------------------------------------------------|
A|----------------------------------------------------------------------------------------------------------|
E|----------------------------------------------------------------------------------------------------------|
                                                 
                                                    Tap bend
e|---7----------------------------------------------------------------------------------------------------|
B|-----8--------------------------------------------------------------------------------------------------|
G|-------9----------------------------11-12-14----19------------------------------------------------------|
D|---------9-----------------10-12-14---------------------------------------------------------------------|
A|-----------10-----10-12-14------------------------------------------------------------------------------|
E|--------------------------------------------------------------------------------------------------------|

(Chorus tapping section #3)
(4:20- 4:27)
           t                t                 t                 tap harmonic
e|---------------------------------------------------------------------------|
B|---------------------------------------------------------------------------|
G|--2-h-4-12-p-5-p-4-p-2----10-p-2-h-4-p-2----12-p-2-h-4-p-2-----13(4)-------| x2
D|---------------------------------------------------------------------------|
A|---------------------------------------------------------------------------|
E|---------------------------------------------------------------------------|

           t                 t                t               t                t    t
e|----------------------------------------------------------------------------------------------------------|
B|----------------------------------------------------------------------------------------------------------|
G|--2-h-4-12-p-5-p-4-p-2----10-p-2-h-4-p-2---12-p-2-h-4-p-2---14-p-2-h-4-p-2---16-h-17-p-5-p-4-p-2----------|
D|----------------------------------------------------------------------------------------------------------|
A|----------------------------------------------------------------------------------------------------------|
E|----------------------------------------------------------------------------------------------------------|
                                                  tap harmonic  
e|----------------------------------------------------------------------------------------------------------|
B|----------------------------------------------------------------------------------------------------------|
G|--14-h-16-p-5-p-4-p-2------2-h-4-p-2-h-4-p-2---13-(4)-----------------------------------------------------|
D|----------------------------------------------------------------------------------------------------------|
A|----------------------------------------------------------------------------------------------------------|
E|----------------------------------------------------------------------------------------------------------|

(eight finer tapping)
(4:28- 4:32) 
(4:38- 4:40)

         t          t            t                  t             t          t      
e|---------7-p-5---------------------------------------7-p-5------------------------------------------------|
B|------17--p-8--p-5--------------------------------17--p-8--p-5--------------------------------------------|
G|-------------------16-p-9-p-5-----------------------------------16-p-9-p-5--------------------------------|
D|-------------------------------17------------------------------------------17-----------------------------|
A|----------------------------------------------------------------------------------------------------------|
E|----------------------------------------------------------------------------------------------------------|

         t
e|---------7-p-5--------------------------------------------------------------------------------------------|
B|------19--p-8--p-5----------------------------------------------------------------------------------------|
G|---------------------9-p-5--------------------------------------------------------------------------------|
D|----------------------------------------------------------------------------------------------------------|
A|----------------------------------------------------------------------------------------------------------|
E|----------------------------------------------------------------------------------------------------------|

         t          t            t                   t             t         t     
e|---------7-p-5---------------------------------------7-p-5------------------------------------------------|
B|------17--p-8--p-5--------------------------------17--p-8--p-5--------------------------------------------|
G|-------------------16-p-9-p-5-----------------------------------16-p-9-p-5--------------------------------|
D|-------------------------------17------------------------------------------17-----------------------------|
A|----------------------------------------------------------------------------------------------------------|
E|----------------------------------------------------------------------------------------------------------|

       t                         t                           t
e|---------7-p-5--------------------7--p--5--------------------7--p--5--------------------------------------|
B|-----19---p-8--p-5-------------20---p-8--p-5--------------17---p-8--p-5-----------------------------------|
G|--------------------9-p-5---------------------9-p-5----------------------9-p-5----------------------------|
D|----------------------------------------------------------------------------------------------------------|
A|----------------------------------------------------------------------------------------------------------|
E|----------------------------------------------------------------------------------------------------------|

        t   t     t
e|-------------------7-p-5----------------------------------------------------------------------------------|
B|-----17-h-19-p-17---p-8--p-5------------------------------------------------------------------------------|
G|------------------------------9-h-11-p-9-p-5--------------------------------------------------------------|
D|----------------------------------------------------------------------------------------------------------|
A|----------------------------------------------------------------------------------------------------------|
E|----------------------------------------------------------------------------------------------------------|

(4:33-4:37)     
(4:41-4:47)

      t         t          t          t
e|-----------------------------------19-p-14---14-h-18-p-14-------------------------------------------------|
B|------------------------19--p--16-------------------------------------------------------------------------|
G|-------------20--p--15------------------------------------------------------------------------------------|
D|---20--p-16-----------------------------------------------------------------------------------------------|
A|----------------------------------------------------------------------------------------------------------|
E|----------------------------------------------------------------------------------------------------------|

      t         t         t          t          t
e|---------------------------------------------19-p-14---14-h-18-p-14---------------------------------------|
B|----------------------------------19--p--16---------------------------------------------------------------|
G|-----------------------20--p--15--------------------------------------------------------------------------|
D|-------------20--p-16-------------------------------------------------------------------------------------|
A|--18--p--13-----------------------------------------------------------------------------------------------|
E|----------------------------------------------------------------------------------------------------------|

(repeat 8 finger tapping section) x2

[Verse 4]
(4:48-5:01)
   v          v           b 
e|------------------------------------------------------------------------------------------------|
B|------------------------------------------------------------------------------------------------|
G|-7--------s-7--6--------------------------------------------------------------------------------|
D|------------------9--7--6--h-7--p--6--s-9-------------------------------------------------------|
A|------------------------------------------------------------------------------------------------|
E|------------------------------------------------------------------------------------------------|

(5:01- 5:02)
e|----------------------------------------10------------------------------------------------------|
B|-----------------------------9--10--12------12--10--9-------------------------------------------|
G|-----------------------7--8---------------------------9--8--------------------------------------|
D|-------------6--7--9----------------------------------------------------------------------------|
A|----6--7--9-------------------------------------------------------------------------------------|
E|------------------------------------------------------------------------------------------------|

(5:03-5:09)
 v          v           b 
e|------------------------------------------------------------------------------------------------|
B|------------------------------------------------------------------------------------------------|
G|-7--------s-7--6--------------------------------------------------------------------------------|
D|------------------9--7--6--h-7--p--6--s-9-------------------------------------------------------|
A|------------------------------------------------------------------------------------------------|
E|------------------------------------------------------------------------------------------------|

(5:10- 5:11)
                                                 v  
e|---s-16--12-h-16-p-12---------------------------------------------------------------------------|
B|----------------------------12--9-h-12-p-9------------------------------------------------------|
G|-----------------------13-------------------s-9-------------------------------------------------|
D|------------------------------------------------------------------------------------------------|
A|------------------------------------------------------------------------------------------------|
E|------------------------------------------------------------------------------------------------|

(5:12- 5:17)
 v          b 
e|------------------------------------------------------------------------------------------------|
B|------------------------------------------------------------------------------------------------|
G|-7---------7--6---------------------------------------------------------------------------------|
D|------------------9--7--6--h-7--p--6--s-9-------------------------------------------------------|
A|------------------------------------------------------------------------------------------------|
E|------------------------------------------------------------------------------------------------|

(5:18-5:19)
e|----------------------------------------------------12-14-16------------------------------------------|
B|------------------------------------------12-14-16------------16-14-12--------------------------------|
G|--------------------------------13-14-16--------------------------------16-14-13--s--7----------------|
D|-----------------------13-14-16-----------------------------------------------------------------------|
A|-------------12-14-16---------------------------------------------------------------------------------|
E|---12-14-16-------------------------------------------------------------------------------------------|

(5:20- 5:25)
v          b 
e|------------------------------------------------------------------------------------------------|
B|------------------------------------------------------------------------------------------------|
G|-7---------7--6---------------------------------------------------------------------------------|
D|------------------9--7--6--h-7--p--6--s-9-------------------------------------------------------|
A|------------------------------------------------------------------------------------------------|
E|------------------------------------------------------------------------------------------------|

(5:26- 5:28)
(Legato)
e|--s-11-h-12-p-11-p-9----------------------------------------------------------------------------|
B|------------------------12-p-10-p-9-------------------------------------------------------------|
G|-------------------------------------11-p-9-p-8-------------------------------------------------|
D|-------------------------------------------------11-p-9-p-7-------------------------------------|
A|-------------------------------------------------------------11-p-9-p-7-------------------------|
E|------------------------------------------------------------------------------------------------|

(Ending tapping section)
(5:29-5:43)
           t                t                 t                 tap harmonic
e|---------------------------------------------------------------------------|
B|---------------------------------------------------------------------------|
G|--2-h-4-12-p-5-p-4-p-2----10-p-2-h-4-p-2----12-p-2-h-4-p-2-----13(4)-------| x2
D|---------------------------------------------------------------------------|
A|---------------------------------------------------------------------------|
E|---------------------------------------------------------------------------|

           t                 t                t               t                t    t
e|----------------------------------------------------------------------------------------------------------|
B|----------------------------------------------------------------------------------------------------------|
G|--2-h-4-12-p-5-p-4-p-2----10-p-2-h-4-p-2---12-p-2-h-4-p-2---14-p-2-h-4-p-2---16-h-17-p-5-p-4-p-2----------|
D|----------------------------------------------------------------------------------------------------------|
A|----------------------------------------------------------------------------------------------------------|
E|----------------------------------------------------------------------------------------------------------|
                                                  tap harmonic  
e|----------------------------------------------------------------------------------------------------------|
B|----------------------------------------------------------------------------------------------------------|
G|--14-h-16-p-5-p-4-p-2------2-h-4-p-2-h-4-p-2---13-(4)-----------------------------------------------------|
D|----------------------------------------------------------------------------------------------------------|
A|----------------------------------------------------------------------------------------------------------|
E|----------------------------------------------------------------------------------------------------------|


************************************

| p    Pull-off
| (n)  Ghost note
| h    Hammer-on
| x    Dead note

************************************

            
            
Suggest correction
Creating personal tab
Creating personal tab
You can edit any tab online and save it as your Personal.

You can edit, replace or remove any tab part or add personal notes – all changes will be seen only by you.

Personal tabs can be accessed anytime from any device, even offline.
Learn more »
comments
print report bad tab
5 comments total. Showing first comments.
0 reply
Silaslml 53 Nov 08, 2014 09:09 AM, edited at 08:20 pm

Quiere correciones.

-1 reply
Mars Sevenfold 241 Feb 14, 2015 06:38 AM

gp5 please??

0 reply
nicburnsred 10 Apr 27, 2015 09:29 AM

Lack of accuracy. I can't say anything about the rest of the tab but unfortunately, the 8 finger tapping section is quite inaccurate. I tabbed it out perfectly in a playback program and it sounds nothing like it. In the vid, Syn's right hand is playing something totally different than what's here.

guest
You may want to rate the tab now too:
select rating
Wanna post a correction for this tab? Suggest correction