Oops, an error
Loading. Please wait.

Synyster Gates Tab

52,390 views 75 this week
17 commentsread comments
1 2 3 4 5
x 21
add to favorites
launch autoscroll
font size
0
reset
how to read this tab
guitar tuner
×
Best way to learn
"Synyster Gates"
Autoscroll
slow
fast
+/-
esc
set tempo
stop
Drop D

[Riff A]
e|-------------------------------------------|
B|-------------------------------------------|
G|-------------------------------------------|
D|-------------------------------------------|
A|-5----3h5-8--8--5-3--3-5--3h5-8-8---5-3--3-|
E|--------------------5-------------------5--|

e|--------------|
B|--------------|
G|-3-------5----|
D|-3-------5----|
A|-1-------3----|
E|--------------|

[Riff B] 
(palm mute the 5's)
e|------------------------------------|----------------------------------------|
B|------------------------------------|----------------------------------------|
G|------------------------------------|-------6----6h7-------8----7------6h7---|
D|------6----6h7------8----7------6h7-|-5555-----55-----5555---55---5555-------| (x2)
A|-5555---55-----5555---55---5555-----|----------------------------------------|
D|------------------------------------|----------------------------------------|

e|---------------------------------------------------------------------------|
B|---------------------------------------------------------------------------|
G|---------------------------------------------------------------------------|
D|------6----6h7------8----7------6h7-------7----5-7-5---------8----8-10-8---|
A|-5555---55-----5555---55---5555------4444---44-------6--6666---66--------9-|
E|---------------------------------------------------------------------------|

[Fill 1] 
(5's divebomb and harmonic)
e|-----|---|
B|-<5>-|---|
G|-<5>-|---|
D|-----|-0-|
A|-----|-0-|
E|-----|-0-|

[Fill 2]
e|----|
B|----|
G|-9b-|  (With this bend, you wanna bend then release and repeat 3 times,
D|----|  all in same bend)
A|----|
E|----|

[Riff C]
e|-----------------------------------------------------------------------------|
B|-----------------------------------------------------------------------------|
G|-77777777777777777777777-99999999-1010101010101010-1212121212121212-13131313-|
D|-----------------------------------------------------------------------------|
A|-----------------------------------------------------------------------------|
E|-----------------------------------------------------------------------------|

e|----------|-------------------------------------------------------------|
B|----------|-------------------------------------------------------------|
G|-13131313-|-13h14h17p14-13h14h17p14-13h14h17p14-13h14h17p14-13h14h17p13-|
D|----------|-------------------------------------------------------------|
A|----------|-------------------------------------------------------------|
E|----------|-------------------------------------------------------------|

e|------------------------------------------------------------------------|
B|------------------------------------------------------------------------|
G|-13h14-17b--13h14h17p14-13h14h17p14-13h14h17p14-13h14h17p14-13h14h17p13-|
D|------------------------------------------------------------------------|
A|------------------------------------------------------------------------|
E|------------------------------------------------------------------------|

e|-----------|
B|-----------|
G|-13h14-17b-|
D|-----------|
A|-----------|
E|-----------|

[Riff D]
e|----------------------------------------------17b-|-18-15---15-----15-|
B|-------------------------------------15-13-15-----|-------18---18b----|
G|-15-14-15-12----15-14-15-12-------12--------------|-------------------|
D|-------------12----------------12-----------------|-------------------|
A|----------------------------13--------------------|-------------------|
E|--------------------------------------------------|-------------------|

e|-----15------15-----------|----------------------------|------------|
B|-18b----18b-----18-15-18--|-15-----15------15b------20-|------------|
G|--------------------------|----17b----17b-------17b----|-17b-19-17b-|
D|--------------------------|----------------------------|------------|
A|--------------------------|----------------------------|------------|
E|--------------------------|----------------------------|------------|

e|----------------------------------------------------------------------|
B|----------------------------------------------------------------------|
G|-19-17-15-17-15----15-------------------------------------------------|
D|----------------17-----17-15-17-15------15----------15-17----22----22-|
A|------------------------------------18-----17-15-17-------17----17----|
E|----------------------------------------------------------------------|

e|---------|
B|---------|
G|---------|
D|---------|
A|-17------|
E|----/16--|

[Riff E]
e|-------------------------------15-16--------------------------------|
B|-------------------------14-15-------14-15--------------------------|
G|-------------------14-15-------------------14-15--------------------|
D|-------------14-15--------------------------------14-15-------------|
A|-------14-15--------------------------------------------14-15-------|
E|-16-17--------------------------------------------------------12/14-|

e|--------------------------------------------------------------13-15-13-|
B|---------------------------------------------12-13------12-13----------|
G|----------------------------12-13------12-13-------12-13---------------|
D|-----------12-13------12-13------12-13---------------------------------|
A|-----12-13-------12-13-------------------------------------------------|
E|-15--------------------------------------------------------------------|

e|-15-17b---17-15-13-15-13------13-----------------|
B|--------------------------15-----15----15--------|
G|------------------------------------14-----14-16-|
D|-------------------------------------------------|
A|-------------------------------------------------|
E|-------------------------------------------------|

e|------------------------------------------------|
B|------------------------------------------------|
G|-12-14-16-17-14-12-14-16-17-14-9-10-12-13-12-10-|
D|------------------------------------------------|
A|------------------------------------------------|
E|------------------------------------------------|

e|------------------------------------------------------------------------|
B|------------------------------------------------------------------------|
G|-5-7-9-10-9-7-5-7-10-9-7-9-10-12-13-12-10-5-7-9-10-9-7-9-10-12-13-12-10-|
D|------------------------------------------------------------------------|
A|------------------------------------------------------------------------|
E|------------------------------------------------------------------------|

e|---------------------------------------------------------|
B|------------------------------------------------15----15-|
G|-9-10-12-13-12-10-12-14-16-17-16-14-16-17-16-17----17----|
D|---------------------------------------------------------|
A|---------------------------------------------------------|
E|---------------------------------------------------------|

e|-------------------15----15-17----18----17-15-17-|
B|-17-15-17-18-17-18----18-------------------------|
G|-------------------------------------------------|
D|-------------------------------------------------|
A|-------------------------------------------------|
E|-------------------------------------------------|

e|-15-17-18-17-15-17-18-17-15-17-18-17-15-17-18-17-15-17-20-15-17-18-|
B|-------------------------------------------------------------------|
G|-------------------------------------------------------------------|
D|-------------------------------------------------------------------|
A|-------------------------------------------------------------------|
E|-------------------------------------------------------------------|

e|-15-17-20-17-15-17-20-17-15-17-15----15--------------------------|
B|----------------------------------18----18-17-18-17-15-17-15-----|
G|-------------------------------------------------------------17b-|
D|-----------------------------------------------------------------|
A|-----------------------------------------------------------------|
E|-----------------------------------------------------------------|

e|---------------------------------------------------------15-17-18-15-17-18-|
B|---------------------------------------15-17-18-15-17-18-------------------|
G|---------------------15-17-18-15-17-18-------------------------------------|
D|---15-17-18-15-17-18-------------------------------------------------------|
A|---------------------------------------------------------------------------|
E|---------------------------------------------------------------------------|

e|----------------------------------------10-11-13-10-11-13-|
B|---------------------10-11-13-10-11-13--------------------|
G|--10-12-13-10-12-13---------------------------------------|
D|----------------------------------------------------------|
A|----------------------------------------------------------|
E|----------------------------------------------------------|

e|-17t13p10-17t13p10-15t13p10-15t13p10-15------------------------------------|
B|---------------------------------------18t13p10-18t13p10-17t13p10-17t13p10-|
G|---------------------------------------------------------------------------|
D|---------------------------------------------------------------------------|
A|---------------------------------------------------------------------------|
E|---------------------------------------------------------------------------|

[Riff F] 
(This riff is tricky. when u "tap", just hold ur finger down on the 12th fret and 
the string. then, release and bend 17 with ur left hand)
e|---------|
B|---------|
G|-12t-17b-| (3x0
D|---------|
A|---------|
E|---------|

[Riff G]
e|--------------------------------------------------------------------------|
B|--------------------------------------------------------------------------|
G|-7--9b---9b-9br---7-9--9br----9-11---11br---9-11b---11br---12-12b----12br-|
D|--------------------------------------------------------------------------|
A|--------------------------------------------------------------------------|
E|--------------------------------------------------------------------------|

e|--------------------|--------------|---------------------------|
B|--------------------|-15-14-15-15v-|-15-14-12-14-12---12-------|
G|-12-14b----14br-----|--------------|---------------14----15-14-|
D|--------------------|--------------|---------------------------|
A|--------------------|--------------|---------------------------|
E|--------------------|--------------|---------------------------|

e|----------|------------------------|-------------|------------|
B|----------|------------------------|-------------|------------|
G|-11v------|-14-12-11----------14bv-|-12-11-------|--------14b-|
D|------12--|----------14-12---------|-------14-12-|-11---------|
A|----------|----------------14------|-------------|----14------|
E|----------|------------------------|-------------|------------|

e|--------------------------|------------------------------------------------|
B|--------------------------|------------------------------------------------|
G|-12-11--------------14-12-|-11----------14-12-11----------14-12-11---------|
D|-------14-12-11-----------|----14-12-11----------14-12-11---------14-12-11-|
A|----------------14--------|------------------------------------------------|
E|--------------------------|------------------------------------------------|

[Riff H]
e|-------------------------------------|
B|-------------------------------------|
G|-14-12-11----------14-12-11----------|
D|----------14-12-11----------14-12-11-| (4x)
A|-------------------------------------|
E|-------------------------------------|

e|-------------------|
B|-14-12-11----------|
G|----------14-12-11-| (4x)
D|-------------------|
A|-------------------|
E|-------------------|

e|-14-12-11----------|
B|----------14-12-11-|
G|-------------------|  (2x)
D|-------------------|
A|-------------------|
E|-------------------|

                            (x4)
e|-15-14-12----------|-17-15-14----------|
B|----------15-14-12-|----------17-15-14-|
G|-------------------|-------------------|
D|-------------------|-------------------|
A|-------------------|-------------------|
D|-------------------|-------------------|

e|-17-15-14----------------------14-15-17b-|-15-14-15-14------------|
B|----------17-15-14----14-15-17-----------|--------------15--------|
G|-------------------16--------------------|------------------14-11-|
D|-----------------------------------------|------------------------|
A|-----------------------------------------|------------------------|
E|-----------------------------------------|------------------------|

e|----------------------|----12--------12b--|----|---|
B|----------------15----|-15--------15------|----|---|
G|-12-11----11-12----14-|--------14---------|-6b-|---|
D|-------14-------------|-------------------|----|-0-|
A|----------------------|-------------------|----|-0-|
E|----------------------|-------------------|----|-0-|


************************************

| h   Hammer-on
| b   Bend
| p   Pull-off
| /   Slide up
| t   Tapping
| br  Bend release
  

************************************
Suggest correction
comments
print report bad tab
17 comments total. Showing first comments.
+1 reply
th_brck_rcks 456 Mar 13, 2010 08:51 AM

This being your first tab is really great because you did a great job tabbing this :D

0 reply
th34m3ric4nw34t 209 Mar 14, 2010 12:40 PM

Thanks a lot man!

0 reply
th_brck_rcks 456 Mar 14, 2010 04:21 PM

no prob :)

guest
You may want to rate the tab now too:
select rating
Wanna post a correction for this tab? Suggest correction