Oops, an error
Loading. Please wait.

The Fight tab

version 1
version 1

Whole song

Interactive

15,180 views 21 this week
4 commentsread comments
1 2 3 4 5
x 8
add to favorites
×
Save as Personal and add changes to this tab that will be seen only by you. Learn more ›
×
You can save this tab as Personal to edit and correct it or add notes. All changes will be seen only by you. Learn more »
launch autoscroll
font size
0
reset
how to read this tab
guitar tuner
edit
Autoscroll
slow
fast
+/-
esc
set tempo
stop
Song: The Fight
Artist: Avenged Sevenfold
Album: Diamonds In The Rough

Tabbed by AwokenDEMON (Colton Wood)
Coltonwoed@aol.com

If there is any mistakes email me with the topic being the name of the tab, I 
try to keep the mistakes to a maximum number of 0. But just in the case that
I make an error, correct me so I may correct this tab =).

        Legend
***********************
* h - Hammer on       *
* p - Pull off        *
* / - Slide up        *
* \ - Slide down      *
* b - Bend            *
* /\- Tremolo (up)    *
*7--8                 *
*7--4                 *
* \/- Tremolo (Down)  *
* r - Release bend    *
* . - Palm muted note *
* x - Dead note       *
* ~ - Vibrato         *
* ^ - Sweep up        *
* > - Sweep Down      *
***********************
Tremolo bar can be substsituted with legato sliding.

Note: Avenged sevenfold overdubs** a lot, so you may need a few guitars!

Guitar 2 (Syn. AND Zacky Rhythm): Drop D tuning.
Guitar 3 (Syn. Gates Pan Left): Drop D tuning.**
Guitar 4 (Zacky Veng. Pan Right): Drop D tuning.**
Guitar 5 (Syn. Gates Lead): Drop D tuning.**

Please don't complain about how I skipped 1, I know I did, it won't affect the tab though!
I'm very certain with panning, so look out for those kind of things. Guitar 2 is
always TWO guitars, Synyster and Zacky. But they always play the same rhythm part.
******************************************************************************

/Introduction\
\------------/

  Guitar 4
E|---------------------------------------------------|
B|---------------------------------------------------|
G|---------7h10-7---------10-7---7h10p7--------------|
D|-----6h7--------------7----------------7--6--------|
A|-5h8--------------5h8------------------------8--5--|
D|---------------------------------------------------|
 |
 |Guitar 2
E|---------------------------------------------------|
B|---------------------------------------------------|
G|---------------------------------------------------|
D|---------------------------------------------------|
A|-0-(X32)-------------------------------------------|
D|-0-------------------------------------------------|
   . 
 
  Guitar 4
E|---------------------------------------------------|
B|---------------------------------------------------|
G|---------------------------------------------------|
D|---------5h8-5----------8-5----5h8p5---------------|
A|-----4h5--------------5----------------5--4--------|
D|-5h8--------------5h8------------------------8--5--|
 |
 |Guitar 2
E|---------------------------------------------------|
B|---------------------------------------------------|
G|---------------------------------------------------|
D|---------------------------------------------------|
A|-5-(X32)-------------------------------------------|
D|-5-------------------------------------------------|
   . 

  Guitar 4
E|-----------------------------1-------------------------------1---|
B|-----------3-------------3-----3-----------3-------------3-----3-|
G|-----3---3---3-------3-----3---------3---3---3-------3-----3-----|
D|---3---3-------3---3---3-----------3---3-------3---3---3---------|
A|-1---------------1---------------1---------------1---------------|
D|-----------------------------------------------------------------|
 |
 |Guitar 2
E|-----------------------------------------------------------------|
B|-----------------------------------------------------------------|
G|-----------------------------------------------------------------|
D|-3-(X32)---------------------------------------------------------|
A|-1---------------------------------------------------------------|
D|-----------------------------------------------------------------|
 | .
 |Guitar 3
E|-10b12r10-----10---------------10b12r10-----10-------------------|
B|----------10-----10---------------------10-----10----10----------|
G|--------------------10----------------------------10----10-9-----|
D|-----------------------12------------------------------------12--|
A|---------------------------12----------------------------------12|
D|-----------------------------------------------------------------|

  
  Guitar 4
E|-------------3---------------3-------3-1-0----3-1-0--|
B|---------5-----5---------5-----5---1---------1-------|
G|-----5-----5---------5-----5-------------------------|
D|---5---5-----------5---5-------------5-3-2----5-3-2--|
A|-3---------------3-----------------3---------3-------|
D|-----------------------------------------------------|
 | 
 |Guitar 2
E|-----------------------------------------------------|
B|-----------------------------------------------------|
G|-----------------------------------------------------|
D|-5-(X32)---------------------------------------------|
A|-3---------------------------------------------------|
D|-----------------------------------------------------|
   .

  Guitar 2
E|---------------------------|
B|---------------------------|
G|---------------------------|
D|-12----------------\6------|
A|-12----------------\6------|
D|-12----------------\6------|


/Verse 1\
\-------/


  Guitar 2
E|-------------------------------------------------------------------------|
B|-------------------------------------------------------------------------|
G|-------------------------------------------------------------------------|
D|-------------------------------------------------------------------------|
A|-5-(X8)------------------------------------0-(X8)-1-(X8)-----------------|
D|--------7-(X8)-8-(X8)-6-(X8)-5-(X8)-3-(X8)-------------------------------|
 | .      .      .      .      .      .      .      .
 |Guitar 3
E|-------------------------------------------------19-18-------------------|
B|-------------------------------------------------------18----------------|
G|----------------------------------------------------------19-------------|
D|-------------------------------------------------------------20-19-------|
A|-------------------------------------------------------------------20-19-|
D|-------------------------------------------------------------------------|


  Guitar 2
E|---------------------------------------------------------|
B|---------------------------------------------------------|
G|---------------------------------------------------------|
D|---------------------------------------------------------|
A|-5-(X8)------------------------------------0-(X8)-1-(X8)-|
D|--------7-(X8)-8-(X8)-6-(X8)-5-(X8)-3-(X8)---------------|
 | .      .      .      .      .      .      .      .
 |Guitar 4
E|---------------------------------------------------------|
B|---------------------------------------------------------|
G|---------------------------------------------------------|
D|---------------------------------------------------------|
A|-17b20~--------------------------------------------------|
D|---------------------------------------------------------|


  Guitar 2
E|-----------------------------------------------------------------|
B|-----------------------------------------------------------------|
G|-7-7-7-7-7-7-7-7-----------------7-7-7-7-7-7-7-7-5-5-5-5-5-5-5-5-|
D|-7-7-7-7-7-7-7-7-8-8-8-8-8-8-8-8-7-7-7-7-7-7-7-7-5-5-5-5-5-5-5-5-|
A|-5-5-5-5-5-5-5-5-8-8-8-8-8-8-8-8-5-5-5-5-5-5-5-5-3-3-3-3-3-3-3-3-|
D|-----------------8-8-8-8-8-8-8-8---------------------------------|
 |
 |Guitar 5
E|-----------------------------------------------------------------|
B|-----------------------------------------------------------------|
G|---------77/10/12-------33/10/12-------77-10-12--9-9-9-9-9-9\5-5-|
D|---------xx-x--x--------xx-x--x--------xx-x--x---x-x-x-x-x-x-x-x-|
A|---------55/8-/10-------11/8-/10-------55/8-/10--7-7-7-7-7-7\3-3-|
D|-----------------------------------------------------------------|
  

  Guitar 2
E|-----------------|
B|-----------------|
G|-3-3-3-3-3-3-3-3-|
D|-3-3-3-3-3-3-3-3-|
A|-1-1-1-1-1-1-1-1-|
D|-----------------|
 |
 |Guitar 5
E|-----------------|
B|-----------------|
G|/7-7-7-7-7-7-7-7-|
D|-x-x-x-x-x-x-x-x-|
A|/5-5-5-5-5-5-5-5-|
D|-----------------|


/Pre Chorus\
\----------/


  Guitar 2
E|--------------------------------------------------|
B|--------------------------------------------------|
G|--------------------------------------------------|
D|---------5b6-----5b6----5b6------5------3------2--|
A|-0-0--0--5b6-0-0-5b6-00-5b6--0-0-5--0-0-5--0-0-4--|
D|-0-0--0--5b6-0-0-5b6-00-5b6--0-0-5--0-0-3--0-0-2--|
   . .  .      . .     ..      . .    . .    . .

  Guitar 2
E|--------------------------------------------------|
B|--------------------------------------------------|
G|--------------------------------------------------|
D|---------5b6-----5b6----5b6------5------3------2--|
A|-0-0--0--5b6-0-0-5b6-00-5b6--0-0-5--0-0-5--0-0-4--|
D|-0-0--0--5b6-0-0-5b6-00-5b6--0-0-5--0-0-3--0-0-2--|
   . .  .      . .     ..      . .    . .    . .


/Chorus\
\------/


  Guitar 4
E|---------------------------------------------------|
B|---------------------------------------------------|
G|---------7h10-7---------10-7---7h10p7--------------|
D|-----6h7--------------7----------------7--6--------|
A|-5h8--------------5h8------------------------8--5--|
D|---------------------------------------------------|
 |
 |Guitar 2
E|---------------------------------------------------|
B|---------------------------------------------------|
G|---------------------------------------------------|
D|---------------------------------------------------|
A|-0-(X32)-------------------------------------------|
D|-0-------------------------------------------------|
   . 
                    With gtr 3
  Guitar 4         /----------\
E|---------------------------------------------------|
B|---------------------------------------------------|
G|---------------------------------------------------|
D|---------5h8-5--------5----5----5h8p5--------------|
A|-----4h5------------5---5--------------5--4--------|
D|-5h8--------------5-------5------------------8--5--|
 |
 |Guitar 2
E|---------------------------------------------------|
B|---------------------------------------------------|
G|---------------------------------------------------|
D|---------------------------------------------------|
A|-5-(X32)-------------------------------------------|
D|-5-------------------------------------------------|
   . 

  Guitar 4
E|-----------------------------1-------------------------------1---|
B|-----------3-------------3-----3-----------3-------------3-----3-|
G|-----3---3---3-------3-----3---------3---3---3-------3-----3-----|
D|---3---3-------3---3---3-----------3---3-------3---3---3---------|
A|-1---------------1---------------1---------------1---------------|
D|-----------------------------------------------------------------|
 |
 |Guitar 2
E|-----------------------------------------------------------------|
B|-----------------------------------------------------------------|
G|-----------------------------------------------------------------|
D|-3-(X32)---------------------------------------------------------|
A|-1---------------------------------------------------------------|
D|-----------------------------------------------------------------|
 | .
 |Guitar 3
E|-10b12r10-----10---------------10b12r10-----10-------------------|
B|----------10-----10---------------------10-----10----10----------|
G|--------------------10----------------------------10----10-9-----|
D|-----------------------12------------------------------------12--|
A|---------------------------12----------------------------------12|
D|-----------------------------------------------------------------|


  Guitar 4
E|-------------3---------------3-----------------------|
B|---------5-----5---------5-----5---------------------|
G|-----5-----5---------5-----5-------------------------|
D|---5---5-----------5---5-------------5-3-2----5-3-2--|
A|-3---------------3-----------------3---------3-------|
D|-----------------------------------------------------|
 | 
 |Guitar 2
E|-----------------------------------------------------|
B|-----------------------------------------------------|
G|-----------------------------------------------------|
D|-5-(X32)---------------------------------------------|
A|-3---------------------------------------------------|
D|-----------------------------------------------------|
 | .
 |Guitar 3
E|--------------------------------------3-1-0---3-1-0--|
B|------------------------------------1--------1-------|
G|-----------------------------------------------------|
D|-----------------------------------------------------|
A|-----------------------------------------------------|
D|-----------------------------------------------------|


/Pre Solo\
\--------/

  
  Guitar 2
E|-------------------------------------------------------------|
B|-------------------------------------------------------------|
G|-------------------------------------------------------------|
D|-12----------\6----------\5----------\3----------2-----------|
A|-12----------\6----------\5----------\3----------3-----------|
D|-12----------\6----------\5----------\3----------2-----------|
 |
 |Guitar 3
E|-17----------16----------------10/18-17----------15----------|
B|----18----------17----------11----------18----------17-------|
G|-------19----------16----12----------------19----------18----|
D|----------19----------16----------------------19----------19-|
A|-------------------------------------------------------------|
D|-------------------------------------------------------------|
 |
 |Guitar 4
E|-13-10-------12----------------------13----------12----------|
B|-------10-------12-------------11/20----15----------14-------|
G|----------10-------12-------12-------------14----------14----|
D|----------------------13-14-------------------15----------14-|
A|-------------------------------------------------------------|
D|-------------------------------------------------------------|


/Guitar Solo\
\-----------/


  Guitar 5
E|/10h13p10-------------------------------------------------------------|
B|---------10-------------------------------------------10h11h12-13-13~-|
G|-----------10----------9h10h11-12-12~-11h12h13-14-14~-----------------|
D|-------------12--12/15------------------------------------------------|
A|---------------12-----------------------------------------------------|
D|----------------------------------------------------------------------|
 |       > > > > >                            
 |Guitar 2
E|----------------------------------------------------------------------|
B|----------------------------------------------------------------------|
G|----------------------------------------------------------------------|
D|----------------------------------------------------------------------|
A|-5-(X8)---------------------------------------------------------------|
D|------------------7-(X8)-----------8-(X8)-----------6-(X8)------------|
   .                .                .                .    
 
  Guitar 5
E|-------/\--------------/\-------|
B|-/11--8--11--8~--/10--6--10--6~-|
G|----\/--------------\/----------|
D|--------------------------------|
A|--------------------------------|
D|--------------------------------|
 |
 |Guitar 2
E|--------------------------------|
B|--------------------------------|
G|--------------------------------|
D|--------------------------------|
A|--------------------------------|
D|-5-(X8)-----------3-(X8)--------|
   .                .       

  Guitar 3
E|-------------------12---------------------------------12-13~\--|
B|-----------------14--15-14-------------------------15----------|
G|------12-13-14-15---------14-----------14-15-16-17-------------|
D|-14-15----------------------14-15-17-18------------------------|
A|---------------------------------------------------------------|
D|---------------------------------------------------------------|
 |
 |Guitar 4
E|---------------------------------------------------------------|
B|-------------------14------------------------------------------|
G|-----------------15--16-15-------------------------15-17-19~\--|
D|------14-15-16-17---------15-----------16-17-18-19-------------|
A|-15-17----------------------16-17-19-20------------------------|
D|---------------------------------------------------------------|
 | 
 |Guitar 2
E|---------------------------------------------------------------|
B|---------------------------------------------------------------|
G|---------------------------------------------------------------|
D|---------------------------------------------------------------|
A|-0-(X8)--------------------------1-(X8)------------------------|
D|---------------------------------------------------------------|
   .                               .

  Guitar 5
E|---------------------------------------------------------------------------|
B|--/\-----/\-----/\-------/\----------8/10b13~---------9/10/11/12-13b15r13--|
G|\5--7---7--9---9--10---10--13----7/10--------------10----------------------|
D|------------------------------------------------12-------------------------|
A|---------------------------------------------------------------------------|
D|---------------------------------------------------------------------------|
 |
 |Guitar 2
E|---------------------------------------------------------------------------|
B|---------------------------------------------------------------------------|
G|---------------------------------------------------------------------------|
D|---------------------------------------------------------------------------|
A|-5-(X8)--------------------------------------------------------------------|
D|-------------7-(X8)------8-(X8)------6-(X8)------5-(X8)------3-(X8)--------|
   .           .           .           .           .           .

  Guitar 3
E|-------------15-15-------18-18-------------------------------20-20-------|
B|-17-17-------------17-17-------20-20-18-18-------18-18-17-17-------18-18-|
G|-------18-18-------------------------------19-19-------------------------|
D|-------------------------------------------------------------------------|
A|-------------------------------------------------------------------------|
D|-------------------------------------------------------------------------|
 |
 |Guitar 4
E|-------------------------------------------------------------------------|
B|-------------17-17-------20-20-------------------------------22-22-------|
G|-18-18-------------18-18-------21-21-19-19-------19-19-17-17-------19-19-|
D|-------19-19-------------------------------20-20-------------------------|
A|-------------------------------------------------------------------------|
D|-------------------------------------------------------------------------|
 |
 |Guitar 2
E|-------------------------------------------------------------------------|
B|-------------------------------------------------------------------------|
G|-------------------------------------------------------------------------|
D|-------------------------------------------------------------------------|
A|-0-(X8)-----------------------------1-(X8)-------------------------------|
D|-------------------------------------------------------------------------|
   .                                  .   

  Guitar 2
E|--------------------------------------------------|
B|--------------------------------------------------|
G|--------------------------------------------------|
D|---------5b6-----5b6----5b6------5------3------2--|
A|-0-0--0--5b6-0-0-5b6-00-5b6--0-0-5--0-0-5--0-0-4--|
D|-0-0--0--5b6-0-0-5b6-00-5b6--0-0-5--0-0-3--0-0-2--|
 | . .  .      . .     ..      . .    . .    . .
 |Guitar 3
E|-15b17----------------------------------------r15-|
B|--------------------------------------------------|
G|--------------------------------------------------|
D|--------------------------------------------------|
A|--------------------------------------------------|
D|--------------------------------------------------|
 |
 |Guitar 4
E|-17b18----------------------------------------r17-|
B|--------------------------------------------------|
G|--------------------------------------------------|
D|--------------------------------------------------|
A|--------------------------------------------------|
D|--------------------------------------------------|


/Verse 2\
\-------/


 Guitar 2
E|-------------------------------------------------------------------------|
B|-------------------------------------------------------------------------|
G|-------------------------------------------------------------------------|
D|-------------------------------------------------------------------------|
A|-5-(X8)------------------------------------0-(X8)-1-(X8)-----------------|
D|--------7-(X8)-8-(X8)-6-(X8)-5-(X8)-3-(X8)-------------------------------|
 | .      .      .      .      .      .      .      .
 |Guitar 3
E|-------------------------------------------------19-18-------------------|
B|-------------------------------------------------------18----------------|
G|----------------------------------------------------------19-------------|
D|-------------------------------------------------------------20-19-------|
A|-------------------------------------------------------------------20-19-|
D|-------------------------------------------------------------------------|


  Guitar 2
E|---------------------------------------------------------|
B|---------------------------------------------------------|
G|---------------------------------------------------------|
D|---------------------------------------------------------|
A|-5-(X8)------------------------------------0-(X8)-1-(X8)-|
D|--------7-(X8)-8-(X8)-6-(X8)-5-(X8)-3-(X8)---------------|
 | .      .      .      .      .      .      .      .
 |Guitar 4
E|---------------------------------------------------------|
B|---------------------------------------------------------|
G|---------------------------------------------------------|
D|---------------------------------------------------------|
A|-17b20\--------------------------------------------------|
D|---------------------------------------------------------|


  Guitar 2
E|-----------------------------------------------------------------|
B|-----------------------------------------------------------------|
G|-7-7-7-7-7-7-7-7-----------------7-7-7-7-7-7-7-7-5-5-5-5-5-5-5-5-|
D|-7-7-7-7-7-7-7-7-8-8-8-8-8-8-8-8-7-7-7-7-7-7-7-7-5-5-5-5-5-5-5-5-|
A|-5-5-5-5-5-5-5-5-8-8-8-8-8-8-8-8-5-5-5-5-5-5-5-5-3-3-3-3-3-3-3-3-|
D|-----------------8-8-8-8-8-8-8-8---------------------------------|
 |
 |Guitar 5
E|-----------------------------------------------------------------|
B|-----------------------------------------------------------------|
G|---------77/10/12-------33/10/12-------77-10-12--9-9-9-9-9-9\5-5-|
D|---------xx-x--x--------xx-x--x--------xx-x--x---x-x-x-x-x-x-x-x-|
A|---------55/8-/10-------11/8-/10-------55/8-/10--7-7-7-7-7-7\3-3-|
D|-----------------------------------------------------------------|
  

  Guitar 2
E|-----------------|
B|-----------------|
G|-3-3-3-3-3-3-3-3-|
D|-3-3-3-3-3-3-3-3-|
A|-1-1-1-1-1-1-1-1-|
D|-----------------|
 |
 |Guitar 5
E|-----------------|
B|-----------------|
G|/7-7-7-7-7-7-7-7-|
D|-x-x-x-x-x-x-x-x-|
A|/5-5-5-5-5-5-5-5-|
D|-----------------|
 |
 |Guitar 3
E|-----------------|
B|-----------------|
G|-----------------|
D|---7-5-----------|
A|-5-----8-7-8-7-5-|
D|-----------------|


/Pre Chorus\
\----------/


  Guitar 2
E|--------------------------------------------------|
B|--------------------------------------------------|
G|--------------------------------------------------|
D|---------5b6-----5b6----5b6------5------3------2--|
A|-0-0--0--5b6-0-0-5b6-00-5b6--0-0-5--0-0-5--0-0-4--|
D|-0-0--0--5b6-0-0-5b6-00-5b6--0-0-5--0-0-3--0-0-2--|
   . .  .      . .     ..      . .    . .    . .

  Guitar 2
E|--------------------------------------------------|
B|--------------------------------------------------|
G|--------------------------------------------------|
D|---------5b6-----5b6----5b6------5------3------2--|
A|-0-0--0--5b6-0-0-5b6-00-5b6--0-0-5--0-0-5--0-0-4--|
D|-0-0--0--5b6-0-0-5b6-00-5b6--0-0-5--0-0-3--0-0-2--|
   . .  .      . .     ..      . .    . .    . .


/Chorus 2\
\--------/


  Guitar 4
E|---------------------------------------------------|
B|---------------------------------------------------|
G|---------7h10-7---------10-7---7h10p7--------------|
D|-----6h7--------------7----------------7--6--------|
A|-5h8--------------5h8------------------------8--5--|
D|---------------------------------------------------|
 |
 |Guitar 2
E|---------------------------------------------------|
B|---------------------------------------------------|
G|---------------------------------------------------|
D|---------------------------------------------------|
A|-0-(X32)-------------------------------------------|
D|-0-------------------------------------------------|
   . 
                    With gtr 3
  Guitar 4         /----------\
E|---------------------------------------------------|
B|---------------------------------------------------|
G|---------------------------------------------------|
D|---------5h8-5--------5----5----5h8p5--------------|
A|-----4h5------------5---5--------------5--4--------|
D|-5h8--------------5-------5------------------8--5--|
 |
 |Guitar 2
E|---------------------------------------------------|
B|---------------------------------------------------|
G|---------------------------------------------------|
D|---------------------------------------------------|
A|-5-(X32)-------------------------------------------|
D|-5-------------------------------------------------|
   . 

  Guitar 4
E|-----------------------------1-------------------------------1---|
B|-----------3-------------3-----3-----------3-------------3-----3-|
G|-----3---3---3-------3-----3---------3---3---3-------3-----3-----|
D|---3---3-------3---3---3-----------3---3-------3---3---3---------|
A|-1---------------1---------------1---------------1---------------|
D|-----------------------------------------------------------------|
 |
 |Guitar 2
E|-----------------------------------------------------------------|
B|-----------------------------------------------------------------|
G|-----------------------------------------------------------------|
D|-3-(X32)---------------------------------------------------------|
A|-1---------------------------------------------------------------|
D|-----------------------------------------------------------------|
 | .
 |Guitar 3
E|-10b12r10-----10---------------10b12r10-----10-------------------|
B|----------10-----10---------------------10-----10----10----------|
G|--------------------10----------------------------10----10-9-----|
D|-----------------------12------------------------------------12--|
A|---------------------------12----------------------------------12|
D|-----------------------------------------------------------------|


  Guitar 4
E|-------------3---------------3-----------------------|
B|---------5-----5---------5-----5---------------------|
G|-----5-----5---------5-----5-------------------------|
D|---5---5-----------5---5-------------5-3-2----5-3-2--|
A|-3---------------3-----------------3---------3-------|
D|-----------------------------------------------------|
 | 
 |Guitar 2
E|-----------------------------------------------------|
B|-----------------------------------------------------|
G|-----------------------------------------------------|
D|-5-(X32)---------------------------------------------|
A|-3---------------------------------------------------|
D|-----------------------------------------------------|
 | .
 |Guitar 3
E|--------------------------------------3-1-0---3-1-0--|
B|------------------------------------1--------1-------|
G|-----------------------------------------------------|
D|-----------------------------------------------------|
A|-----------------------------------------------------|
D|-----------------------------------------------------|


/Interlude\
\---------/


  Guitar 2                                          
E|---------------------------------------------------------------------------|
B|---------------------------------------------------------------------------|
G|-7---------5----------3-----------5----------7---------5--------3---5------|
D|-7---------5----------3-----------5----------7---------5--------3---5------|
A|-5---------3----------1-----------3----------5---------3--------1---3------|
D|---------------------------------------------------------------------------|
 |                                                           \same^duration/
 |Guitar 3         
E|---------------------------------------------------------------------------|
B|---------------------------------------------------------------------------|
G|--------------5--/7--/9--10p7~----5--/7--/9--------------------------------|
D|---0--3--/7----------------------------------------------------------------|
A|--------------------------------------------10-----------------------------|
D|---------------------------------------------------------------------------|
 |
 |Guitar 4
E|---------------------------------------------------------------------------|
B|---------------------------------------------------------------------------|
G|------------------------------------------------------5-/7-/9-10p7~-5-/7-/9|
D|-----------------------------------------------0-3-/7----------------------|
A|---------------------------------------------------------------------------|
D|---------------------------------------------------------------------------|

  Guitar 2
E|----------------------------------------|
B|----------------------------------------|
G|-3----3---3-----3-3-----3---------------|
D|-3----3---3-----3-3-----3---------------|
A|-1----1---1-----1-1-----1---------------|
D|----------------------------------------|
 |
 |Guitar 4
E|----------------------------------------|
B|----------------------------------------|
G|-9b10-------------------------r9--------|
D|----------------------------------------|
A|----------------------------------------|
D|----------------------------------------|


  Guitar 2
E|-----------------------------------------------------------------|
B|-----------------------------------------------------------------|
G|-9-9-9-9-7-7-7-7-5-5-5-5-7-7-7-7-9-9-9-9-7-7-7-7-5-5-5-5-7-7-7-7-|
D|-9-9-9-9-7-7-7-7-5-5-5-5-7-7-7-7-9-9-9-9-7-7-7-7-5-5-5-5-7-7-7-7-|
A|-7-7-7-7-5-5-5-5-3-3-3-3-5-5-5-5-7-7-7-7-5-5-5-5-3-3-3-3-5-5-5-5-|
D|-----------------------------------------------------------------|

  Guitar 2
E|---------------------------------|
B|---------------------------------|
G|-5-5-5-5-5-5-5-5-5-5-5-5-5-5-5-5-|
D|-5-5-5-5-5-5-5-5-5-5-5-5-5-5-5-5-|
A|-3-3-3-3-3-3-3-3-3-3-3-3-3-3-3-3-|
D|---------------------------------|


/Final Chorus\
\------------/


 Guitar 4
E|-----------------------------------------------------|
B|-----------------------------------------------------|
G|---------9h12-9-----------12-9---9h12p9--------------|
D|-----8h9----------------9----------------9--8--------|
A|-7h10--------------7h10------------------------10--7-|
D|-----------------------------------------------------|
 |
 |Guitar 2
E|-----------------------------------------------------|
B|-----------------------------------------------------|
G|-----------------------------------------------------|
D|-----------------------------------------------------|
A|-2-(X32)---------------------------------------------|
D|-2---------------------------------------------------|
   . 
 
  Guitar 4
E|---------------------------------------------------|
B|---------------------------------------------------|
G|---------------------------------------------------|
D|---------7h10-7---------10-7---7h10p7--------------|
A|-----6h7--------------6----------------7--6--------|
D|-7h10-------------7h10-----------------------10--7-|
 |
 |Guitar 2
E|---------------------------------------------------|
B|---------------------------------------------------|
G|---------------------------------------------------|
D|-2-------------------------------------------------|
A|-0-(X32--------------------------------------------|
D|---------------------------------------------------|
   . 

  Guitar 4
E|-----------------------------3-------------------------------3---|
B|-----------5-------------5-----5-----------5-------------5-----5-|
G|-----5---5---5-------5-----5---------5---5---5-------5-----5-----|
D|---5---5-------5---5---5-----------5---5-------5---5---5---------|
A|-3---------------3---------------3---------------3---------------|
D|-----------------------------------------------------------------|
 |
 |Guitar 2
E|-----------------------------------------------------------------|
B|-----------------------------------------------------------------|
G|-----------------------------------------------------------------|
D|-5-(X32)---------------------------------------------------------|
A|-3---------------------------------------------------------------|
D|-----------------------------------------------------------------|
 | .
 |Guitar 3
E|-12b14r12-----12---------------12b14r12-----12-------------------|
B|----------12-----12---------------------12-----12----12----------|
G|--------------------12----------------------------12----12-11----|
D|-----------------------14------------------------------------14--|
A|---------------------------14----------------------------------14|
D|-----------------------------------------------------------------|

  
  Guitar 4
E|-------------5---------------5-----------------------|
B|---------7-----7---------7-----7---------------------|
G|-----7-----7---------7-----7-------------------------|
D|---7---7-----------7---7-------------7-5-4----7-5-4--|
A|-5---------------5-----------------5---------5-------|
D|-----------------------------------------------------|
 | 
 |Guitar 2
E|-----------------------------------------------------|
B|-----------------------------------------------------|
G|-----------------------------------------------------|
D|-7-(X32)---------------------------------------------|
A|-5---------------------------------------------------|
D|-----------------------------------------------------|
 | .
 |Guitar 3
E|-------------------------------------5-3-2----5-3-2--|
B|-----------------------------------3---------3-------|
G|-----------------------------------------------------|
D|-----------------------------------------------------|
A|-----------------------------------------------------|
D|-----------------------------------------------------|


/Outro\
\-----/


  Guitar 2
E|----------------------------------------|
B|----------------------------------------|
G|----------------------------------------|
D|-2-----2--2------2------2-2-2---2-------|
A|-2-----2--2------2------2-2-2---2-------|
D|-2-----2--2------2------2-2-2---2-------|
 |
 |Guitar 4
E|----------------------------------------|
B|----------------------------------------|
G|----------------------9h12p9------------|
D|-----------------------------9--8-------|
A|----------------------------------10--7-|
D|----------------------------------------|
 

 Guitar 2
E|----------------------------------------|
B|----------------------------------------|
G|-2-----2--2------2------2-2-2---2-------|
D|-2-----2--2------2------2-2-2---2-------|
A|-0-----0--0------0------0-0-0---0-------|
D|----------------------------------------|
 |
 |Guitar 4
E|----------------------------------------|
B|----------------------------------------|
G|----------------------------------------|
D|----------------------7h10p7------------|
A|-----------------------------7--6-------|
D|----------------------------------10--7-|


  Guitar 2
E|----------------------------------------|
B|----------------------------------------|
G|-5-----5--5------5------5-5-5---5-------|
D|-5-----5--5------5------5-5-5---5-------|
A|-3-----3--3------3------3-3-3---3-------|
D|----------------------------------------|
 |
 |Guitar 4
E|----------------------------------------|
B|----------------------------------------|
G|----------------------------------------|
D|-------------------10h14p10-------------|
A|----------------------------10--9-------|
D|----------------------------------12--10|


  Guitar 2
E|----------------------------------------|
B|----------------------------------------|
G|-7-----7--7------7------7-7-7-7-7-7-7-7-|
D|-7-----7--7------7------7-7-7-7-7-7-7-7-|
A|-5-----5--5------5------5-5-5-5-5-5-5-5-|
D|----------------------------------------|
 |
 |Guitar 3
E|---------------------------5-3-2--5-3-2-|
B|-------------------------3-------3------|
G|----------------------------------------|
D|----------------------------------------|
A|----------------------------------------|
D|----------------------------------------|
 |
 |Guitar 4
E|----------------------------------------|
B|----------------------------------------|
G|----------------------------------------|
D|---------------------------7-5-4--7-5-4-|
A|-------------------------5-------5------|
D|----------------------------------------|


  Guitar 2
E|---------------------------------------------|
B|---------------------------------------------|
G|-9-------------------------------------------|
D|-9-----8-----7-----5---4---2-2-2-2-2--2-2-2--|
A|-7-----8-----7-----5---4---2-2-2-2-2--2-2-2--|
D|-------8-----7-----5---4---2-2-2-2-2--2-2-2--|

END!

Hope you have a good time learning it, guys.

                          - AwokenDEMON

Suggest correction
Creating personal tab
Creating personal tab
You can edit any tab online and save it as your Personal.

You can edit, replace or remove any tab part or add personal notes – all changes will be seen only by you.

Personal tabs can be accessed anytime from any device, even offline.
Learn more »
comments
print report bad tab
4 comments total. Showing first comments.
0 reply
marcelaguiar 629 Jun 21, 2012 06:51 AM

I'm not good enough to correct this section, but I know there are definately some slides and hammerons/pulloffs through out:

E|-------------------------------------------------------------1---|
B|-----------3-------------3---/6------------3-------------3-----3-|
G|-----3---3---3-------3-----3----7----3---3---3-------3-----3-----|
D|---3---3-------3---3---3-----------3---3-------3---3---3---------|
A|-1---------------1---------------1---------------1---------------|
D|-----------------------------------------------------------------|


kinda like that^ but theres a lot more to it. But besides that, great tab!

+1 reply
marcelaguiar 629 Jun 21, 2012 07:10 AM

Also starting with the first line, heres an add on to the rhythm that you missed:

E|-------------------------------------------------|
B|-------------------------------------------------|
G|---------7h10-7--------10-7---7h10p7-------------|
D|-----6h7-------------7---------------7--6--------|
A|-5h8--------------5h8----------------------8--5--|
D|-------------------------------------------------|
|
|Guitar 2
E|-------------------------------------------------|
B|-------------------------------------------------|
G|-------------------------------------------------|
D|-------------------------------------------------|
A|-0-(X32)---------------8--5----------------------|
D|-0----------------0h3/5--------------------------|


theres some more corrections I could throw in but I dont wanna overload the comments section =p

0 reply
JULIOBIGBALLS 10 Feb 11, 2016 09:32 AM

didn't like this contribution

guest
You may want to rate the tab now too:
select rating
Wanna post a correction for this tab? Suggest correction