Oops, an error
Loading. Please wait.

The Stage Bass Tab

version 1
version 1

Whole song

Interactive

1,075 views 84 this week
no commentswrite comment
1 2 3 4 5
x 3
add to favorites
launch autoscroll
font size
0
reset
guitar tuner
Autoscroll
slow
fast
+/-
esc
set tempo
stop
Help us to improve Ultimate-Guitar.com Take our survey!
×
Author
Difficulty
Tuning
intermediate
D A D G B E
I am open to suggestions on how to improve this tab.

1:04
G|-----------------------------------------------------------------|
D|-----------------------------------------------------------------|
A|-----------------3--3--3-3-------0--0--0-0-----------------------|
D|-2--2--2-2---------------------------------------1--1--1-1-------|
   1 + 2 + 3 + 4 + 1 + 2 + 3 + 4 + 1 + 2 + 3 + 4 + 1 + 2 + 3 + 4 +

G|------------------------------------------------------------------|
D|-----------------------------------------------------------332----|
A|-----------------3--3--3-3-------0--0--0-0---------------33---32--|
D|-2--2--2-2---------------------------------------11111111-------5-|
   1 + 2 + 3 + 4 + 1 + 2 + 3 + 4 + 1 + 2 + 3 + 4 + 1 + 2 + 3 + 4 +

1:18
G|-----------------------------------------------------------------|
D|-----------------------------------------------------------------|
A|-----------------3-33-33-333-333-0-00-00--00-000---------666-666-|
D|-2-22-22--22-222---------------------------------1-11-11---------|
   1 + 2 + 3 + 4 + 1 + 2 + 3 + 4 + 1 + 2 + 3 + 4 + 1 + 2 + 3 + 4 +

G|-----------------------------------------------------------------|
D|-----------------------------------------------------------------|
A|-----------------3-33-33-333-333-0-00-00--00-0-0-----------------|
D|-2-22-22--22-222---------------------------------1---------------|
   1 + 2 + 3 + 4 + 1 + 2 + 3 + 4 + 1 + 2 + 3 + 4 + 1 + 2 + 3 + 4 +

1:32
G|-----------------------------------------------------------------|
D|-----------------------------------------------------------------|
A|-----------------------------------------------------------------|
D|-2-----2-2---24541-----1-1---14542-----2-2---24541-1-1-1---------| 2454 = 2h4h5p4
   1 + 2 + 3 + 4 + 1 + 2 + 3 + 4 + 1 + 2 + 3 + 4 + 1 + 2 + 3 + 4 +

Verse 1:40
G|-----------------------------------------------------------------|
D|-----------------------------------------------------------------|
A|-----------------------------------------------------------------|
D|-2-----2-2---24541-----1-1---1-1-2-----2-2---2-2-1-----1-1---1454|
   1 + 2 + 3 + 4 + 1 + 2 + 3 + 4 + 1 + 2 + 3 + 4 + 1 + 2 + 3 + 4 +

G|-----------------------------------------------------------------|
D|-----------------------------------------------------------------|
A|-----------------------------------------------------------------|
D|-2-2---2-2---24541-----1-1---14542-----2-2---24541-1-1-1-1-1-1-1-|
   1 + 2 + 3 + 4 + 1 + 2 + 3 + 4 + 1 + 2 + 3 + 4 + 1 + 2 + 3 + 4 +

G|-----------------------------------------------------------------|
D|-----------------------------------------------------------------|
A|-----------------------------------------------------------------|
D|-2-----2-2---24541-----1-1---14542-----2-2---24541-----1-1---1-1-|
   1 + 2 + 3 + 4 + 1 + 2 + 3 + 4 + 1 + 2 + 3 + 4 + 1 + 2 + 3 + 4 +

G|-----------------------------------------------------------------|
D|-----------------------------------------------------------------|
A|-------------------------------------------------------------3---|
D|-2-----2-2---24541-----1-1---1-1-2-----2-2---24541-----1-1-------|
   1 + 2 + 3 + 4 + 1 + 2 + 3 + 4 + 1 + 2 + 3 + 4 + 1 + 2 + 3 + 4 +

Pre Chorus 2:08
G|-----------------------------------------------------------------|
D|-----------------------------------------------------------------|
A|-2---------------2-------3-----3-2---------------2-------3-------|
D|-----------2-4-5---2-4-5---2-4-------------2-4-5---2-4-5---2-5-4-|
   1 + 2 + 3 + 4 + 1 + 2 + 3 + 4 + 1 + 2 + 3 + 4 + 1 + 2 + 3 + 4 +

Chorus 2:15
G|-----------------------------------------------------------------|
D|---------------------------------------------------------3-------|
A|-------------------------------------------------------3---3-----|
D|-2-----2---2-2-----2---2-2---0-2-3-----3---3-3-----3---------3-3-|
   1 + 2 + 3 + 4 + 1 + 2 + 3 + 4 + 1 + 2 + 3 + 4 + 1 + 2 + 3 + 4 +

G|-----------------------------------------------------------------|
D|-----------------------------------------------------------------|
A|---------------------5-7---------2---2-2-2-2-2-2-2-2-2-2-2-3-2-0-|
D|-0-----0---0-0-----0-----5-7-2-----------------------------------|
   1 + 2 + 3 + 4 + 1 + 2 + 3 + 4 + 1 + 2 + 3 + 4 + 1 + 2 + 3 + 4 +

Interlude 2:29
G|-----------------------------------------------------------------|
D|-----------------------------------------------------------------|
A|-----------------------------------------------------------------|
D|-2-----2-2---24541-----1-1---14542-----2-2---24541-1-1-1---------|
   1 + 2 + 3 + 4 + 1 + 2 + 3 + 4 + 1 + 2 + 3 + 4 + 1 + 2 + 3 + 4 +

Verse 2:36
G|-----------------------------------------------------------------|
D|-----------------------------------------------------------------|
A|-----------------------------------------------------------------|
D|-2-----2-2---24541-----1-1---14542-----2-2---2-2-1-----1-1---1454|
   1 + 2 + 3 + 4 + 1 + 2 + 3 + 4 + 1 + 2 + 3 + 4 + 1 + 2 + 3 + 4 +

G|-----------------------------------------------------------------|
D|-----------------------------------------------------------------|
A|-----------------------------------------------------------------|
D|-2-2---2-2---24541-----1-1---14542-----2-2---24541-1-1-1-1-1-1-1-|
   1 + 2 + 3 + 4 + 1 + 2 + 3 + 4 + 1 + 2 + 3 + 4 + 1 + 2 + 3 + 4 +

G|-----------------------------------------------------------------|
D|-----------------------------------------------------------------|
A|-----------------------------------------------------------------|
D|-2-----2-2---24541-----1-1---14542-----2-2---24541-----1-1---1-1-|
   1 + 2 + 3 + 4 + 1 + 2 + 3 + 4 + 1 + 2 + 3 + 4 + 1 + 2 + 3 + 4 +

G|-----------------------------------------------------------------|
D|-----------------------------------------------------------------|
A|-----------------------------------------------------------------|
D|-2-2---2-2---24541-----1-1---14542-----2-2---24541-----1-1---1---|
   1 + 2 + 3 + 4 + 1 + 2 + 3 + 4 + 1 + 2 + 3 + 4 + 1 + 2 + 3 + 4 +

Prechorus
G|-----------------------------------------------------------------|
D|-----------------------------------------------------------------|
A|-2---------------2-------3-----3-2---------------2-------3-------|
D|-----------2-4-5---2-4-5---2-4-------------2-4-5---2-4-5---2-5-4-|
   1 + 2 + 3 + 4 + 1 + 2 + 3 + 4 + 1 + 2 + 3 + 4 + 1 + 2 + 3 + 4 +

Chorus 3:12
G|-----------------------------------------------------------------|
D|---------------------------------------------------------3-------|
A|-------------------------------------------------------3---3-----|
D|-2-----2---2-2-----2---2-2---0-2-3-----3---3-3-----3---------3-3-|
   1 + 2 + 3 + 4 + 1 + 2 + 3 + 4 + 1 + 2 + 3 + 4 + 1 + 2 + 3 + 4 +

G|-----------------------------------------------------------------|
D|-----------------------------------------------------------------|
A|---------------------------------2---2-2-2-2-2-2-2-2-2-2-2-0-----|
D|-0-----0---0-0-----0---0-5-7-5-4-----------------------------5-4-|
   1 + 2 + 3 + 4 + 1 + 2 + 3 + 4 + 1 + 2 + 3 + 4 + 1 + 2 + 3 + 4 +

3:26
G|-----------------------------------------------------------------|
D|---------------------------------------------------------3-------|
A|-------------------------------------------------------3---3-----|
D|-2-----2-2-----2-2-----2-2-2-0-2-3-----3-3-----3-3-----------3-3-|
   1 + 2 + 3 + 4 + 1 + 2 + 3 + 4 + 1 + 2 + 3 + 4 + 1 + 2 + 3 + 4 +

G|-----------------------------------------------------------------|
D|-----------------------------------------------------------------|
A|-----------------5-----------2-3-2-----2-2-----2-3-2-2-2-2-2-----|
D|-0-----0-0-----0-------0-0-0---------------------------------5-4-|
   1 + 2 + 3 + 4 + 1 + 2 + 3 + 4 + 1 + 2 + 3 + 4 + 1 + 2 + 3 + 4 +

Solo 3:40
G|-----------------------------------------------------------------|
D|-----------------------------------------------------------------|
A|-----------------------------------------------------------------|
D|-2---2---2-2-2-2-2-2-2---2-2-0-2-3---3---3-3-3-3-3-3-3-3-3---2---|
   1 + 2 + 3 + 4 + 1 + 2 + 3 + 4 + 1 + 2 + 3 + 4 + 1 + 2 + 3 + 4 +

G|-----------------------------------------------------------------|
D|-----------------------------------------------------------------|
A|---------------------------------2-2-2-2-2-2-2-2-2-2-2-2-2-2-2-2-|
D|-0---0---0-0-0-0-0-0-0-0-0-0-0-0---------------------------------|
   1 + 2 + 3 + 4 + 1 + 2 + 3 + 4 + 1 + 2 + 3 + 4 + 1 + 2 + 3 + 4 +

G|-----------------------------------------------------------------|
D|-----------------------------------------------------------------|
A|-----------------------------------------------------------------|
D|-----2---2-2-2-2-2-2-2---2-2-0-2-3-3-3---3-3-3-3-3-3-3-3-3-3-2-2-|
   1 + 2 + 3 + 4 + 1 + 2 + 3 + 4 + 1 + 2 + 3 + 4 + 1 + 2 + 3 + 4 +

G|---------------------------------|
D|---------------------------------|
A|---------------------------------|
D|-0-0-0---0-0-0-0-0-0-0---0-0-0---|
   1 + 2 + 3 + 4 + 1 + 2 + 3 + 4 + 

G|-----------------------------------------------------------------|
D|-----------------------------------------------------------------|
A|-2---2-----------2-------3-----3-2---2-----------2-------3-------|
D|-----------2-4-5---2-4-5---2-4-------------2-4-5---2-4-5---2-5-4-|
   1 + 2 + 3 + 4 + 1 + 2 + 3 + 4 + 1 + 2 + 3 + 4 + 1 + 2 + 3 + 4 +

Rest

Solo 4:55
G|-----------------------------------------------------------------|
D|-----------------------------------------------------------------|
A|---------------------------------------------------6-------------|
D|-5-----5-5-5-5-5-5-5-5-5-5---5-5-5-----5-5-5-5-5-5---5-5-5---5-5-|
   1 + 2 + 3 + 4 + 1 + 2 + 3 + 4 + 1 + 2 + 3 + 4 + 1 + 2 + 3 + 4 +

G|-----------------------------------------------------------------|
D|-----------------------------------------------------------------|
A|-------------------8-----8-------------------------5-----5-------|
D|-7-----7-7-7-7-7-7---7-7-----7-7-4-----4-4-4-4-4-4---4-4-----4-4-|
   1 + 2 + 3 + 4 + 1 + 2 + 3 + 4 + 1 + 2 + 3 + 4 + 1 + 2 + 3 + 4 +

G|-----------------------------------------------------------------|
D|-----------------------------------------------------------------|
A|---------------------------------------------------6-----6-------|
D|-5-5---5-5-5-5-5-5-5-5-5-5---5-5-5-----5-5-5-5-5-5---5-5-----5-5-|
   1 + 2 + 3 + 4 + 1 + 2 + 3 + 4 + 1 + 2 + 3 + 4 + 1 + 2 + 3 + 4 +

G|-----------------------------------------------------------------|
D|-----------------------------------------------------------------|
A|-------------------8-----8-------------------------5-----5-------|
D|-7-----7-7-7-7-7-7---7-7-----7-7-4-----4-4-4-4-4-4---4-4-----4-4-|
   1 + 2 + 3 + 4 + 1 + 2 + 3 + 4 + 1 + 2 + 3 + 4 + 1 + 2 + 3 + 4 +

Verse 5:23
G|-----------------------------------------------------------------|
D|-----------------------------------------------------------------|
A|-----------------------------5---------------5-------------------|
D|-5---5---5-5-5-5-5---5---5-5---5-5---5---5-5---5-5---5---5-5-5-5-|
   1 + 2 + 3 + 4 + 1 + 2 + 3 + 4 + 1 + 2 + 3 + 4 + 1 + 2 + 3 + 4 +

G|-----------------------------------------------------------------|
D|-----------------------------------------------------------------|
A|-------------------------------------------------------------5---|
D|-7---7---7-7-7-7-7---7-7-7-7-7---4---4---4-4-4-4-4---4-4-4-4---4-|
   1 + 2 + 3 + 4 + 1 + 2 + 3 + 4 + 1 + 2 + 3 + 4 + 1 + 2 + 3 + 4 +

5:37
G|-----------------------7-----7-7---------------------------------|
D|---------------------------5-------------------------------------|
A|-------------------------------------------------6-----6-----6-6-|
D|-5---5---5-5-5-5-5---5---5-------5---5---5-5-5-5---5-5---5-5-----|
   1 + 2 + 3 + 4 + 1 + 2 + 3 + 4 + 1 + 2 + 3 + 4 + 1 + 2 + 3 + 4 +

G|-----------------------------------------------------------------|
D|-----------------------------------------------------------------|
A|-----------------------8---8-------------------------------------|
D|-7---7---7-7-7-7-7-7-7---7---7-7-4-4-4-4-4-4-4-4-4-4-4-4-4-4-0-0-|
   1 + 2 + 3 + 4 + 1 + 2 + 3 + 4 + 1 + 2 + 3 + 4 + 1 + 2 + 3 + 4 +

5:51
G|------------------------------------------------------------------|
D|o-----------------------------------------------------------------|
A|o-----------------------------------------------------------------|
D|--5-5-5-5-5-5-5-5-5-5-5-5-5-5-5-5-5-5-5-5-5-5-5-5-5-5-5-5-5-5-5-5-|
    1 + 2 + 3 + 4 + 1 + 2 + 3 + 4 + 1 + 2 + 3 + 4 + 1 + 2 + 3 + 4 +

G|------------------------------------------------------------------|
D|-----------------------------------------------------------------o|
A|-----------------------------------------------------------------o|
D|-7-7-7-7-7-7-7-7-7-7-7-7-7-7-7-7-4-4-4-4-4-4-4-4-4-4-4-4-4-4-4-4--|
   1 + 2 + 3 + 4 + 1 + 2 + 3 + 4 + 1 + 2 + 3 + 4 + 1 + 2 + 3 + 4 +

6:20
G|-------------------------------------------------------------------|
D|o-----------------------------------------------------------------o|
A|o-----------------------------------------------------------------o|
D|--2-----2-2---24541-----1-1---14542-----2-2---24541-----1-1---1454-|
    1 + 2 + 3 + 4 + 1 + 2 + 3 + 4 + 1 + 2 + 3 + 4 + 1 + 2 + 3 + 4 +

Prechorus 6:34
G|-----------------------------------------------------------------|
D|-----------------------------------------------------------------|
A|-2---------------2-------3-----3-2---2-----------2-------3-------|
D|-----------2-4-5---2-4-5---2-4-------------2-4-5---2-4-5---2-5-4-|
   1 + 2 + 3 + 4 + 1 + 2 + 3 + 4 + 1 + 2 + 3 + 4 + 1 + 2 + 3 + 4 +

Chorus 6:41
G|-----------------------------------------------------------------|
D|---------------------------------------------------------3-------|
A|-------------------------------------------------------3---3-----|
D|-2-----2-2-----2-2-----2-2-2-0-2-3-----3-3-----3-3-----------3---|
   1 + 2 + 3 + 4 + 1 + 2 + 3 + 4 + 1 + 2 + 3 + 4 + 1 + 2 + 3 + 4 +

G|-----------------------------------------------------------------|
D|-----------------------------------------------------------------|
A|---------------------------------2-----2-2-----2-2---2-2-2-2-2-2-|
D|-0-----0-0-----0-0-----0-2-3-4-5---------------------------------|
   1 + 2 + 3 + 4 + 1 + 2 + 3 + 4 + 1 + 2 + 3 + 4 + 1 + 2 + 3 + 4 +

6:55
G|-----------------------------------------------------------------|
D|---------------------------------------------------------3-------|
A|-------------------------------------------------------3---3-----|
D|-2---2-2-2-----2-2-----2-2-2-0-2-3-----3-3-----3-3-----------3-3-|
   1 + 2 + 3 + 4 + 1 + 2 + 3 + 4 + 1 + 2 + 3 + 4 + 1 + 2 + 3 + 4 +

G|-----------------------------------------------------------------|
D|-----------------------------------------------------------------|
A|---------------------------------2-----2-2-----2-3-2-2-2-2-2-----|
D|-0-----0-0-----0-0-----0-0-2-5-4-----------------------------5-4-|
   1 + 2 + 3 + 4 + 1 + 2 + 3 + 4 + 1 + 2 + 3 + 4 + 1 + 2 + 3 + 4 +

Outro 7:10 x4 fade out
G|------------------------------------------------------------------|
D|o-----------------------------------------------------------------|
A|o-----------------------------------------------------------------|
D|--2-2-2-2-2-2-2-2-2-2-2-2-2-2-2-2-3-3-3-3-3-3-3-3-3-3-3-3-3-3-3-3-|
    1 + 2 + 3 + 4 + 1 + 2 + 3 + 4 + 1 + 2 + 3 + 4 + 1 + 2 + 3 + 4 +

G|------------------------------------------------------------------|
D|-----------------------------------------------------------------o|
A|---------------------------------2-2-2-2-2-2-2-2-2-2-2-2-2-2-2-2-o|
D|-0-0-0-0-0-0-0-0-0-0-0-0-0-0-0-0----------------------------------|
   1 + 2 + 3 + 4 + 1 + 2 + 3 + 4 + 1 + 2 + 3 + 4 + 1 + 2 + 3 + 4 +
Tabbed by Dave Vucko
Suggest correction
Give kudos to tab author, rate the tab!
1 2 3 4 5
comments
print report bad tab
guest
You may want to rate the tab now too:
select rating
Wanna post a correction for this tab? Suggest correction