Oops, an error
Loading. Please wait.

The Stage Tab

version 1
version 1

Intro

  • It is the first tab , so it's obviously the best one so far.
  • This tab shows the tapping method for the stage intro.
  • My adaptation of the intro by ear.
  • Detailed tapping description, Drop D Tuning.

Whole song

  • This is my fisrt tabe, please rate and enjoy.

Interactive

20,197 views 1,362 this week
4 commentsread comments
1 2 3 4 5
x 14
add to favorites
launch autoscroll
font size
0
reset
how to read this tab
guitar tuner
Autoscroll
slow
fast
+/-
esc
set tempo
stop
Help us to improve Ultimate-Guitar.com Take our survey!
×
Author
Difficulty
Tuning
advanced
D A D G B E
About this tab version
It is the first tab , so it's obviously the best one so far.
Avenged Sevenfold: The Stage (Single) [Intro]

This song was released just today on YouTube , So I didn't have time to tab the other things

Tabbed by Andrei260902


[Intro] - Lead

e|-----7-----7-----7-----7-----7---------|
B|-5-7---5-7---5-7---5-7---5-7---7-------|
G|---------------------------------------|
D|---------------------------------------|
A|---------------------------------------|
D|---------------------------------------|


e|-----8-----8-----8-----8-----8---------|
B|-5-8---5-8---5-8---5-8---5-8---8-------|
G|---------------------------------------|
D|---------------------------------------|
A|---------------------------------------|
D|---------------------------------------|


e|---5-8---5-8---5-8---5-8---5-8-5-------|
B|-5-----5-----5-----5-----5-------------|
G|---------------------------------------|
D|---------------------------------------|
A|---------------------------------------|
D|---------------------------------------|

e|-----8-----8-----7-----7-----7---------|
B|-4-7---4-7---4-7---4-7---4-7---7-------|
G|---------------------------------------|
D|---------------------------------------|
A|---------------------------------------|
D|---------------------------------------|



e|-----7-----7-----7-----7-----7---------|
B|-5-7---5-7---5-7---5-7---5-7---7-------|
G|---------------------------------------|
D|---------------------------------------|
A|---------------------------------------|
D|---------------------------------------|


e|-----8-----8-----8-----8-----8---------|
B|-5-8---5-8---5-8---5-8---5-8---8-------|
G|---------------------------------------|
D|---------------------------------------|
A|---------------------------------------|
D|---------------------------------------|


e|---5-8---5-8---5-8---5-8---5-8-5-------|
B|-5-----5-----5-----5-----5-------------|
G|---------------------------------------|
D|---------------------------------------|
A|---------------------------------------|
D|---------------------------------------|

e|-----8-----8-----7-----7---------15h19p15-------|
B|-4-7---4-7---4-7---4-7---------17--------17-----|
G|-----------------------------16------------16---|
D|---------------------------17----------------17-|
A|-------------------------19---------------------|
D|------------------------------------------------|

Repeat this how many times it's necessary 

[Intro] - Rhythm Comes in after the 2nd time all above is played.

e|---------------------------------------------------------------------------|
B|---------------------------------------------------------------------------|
G|---------------------------------------------------------------------------|
D|-2-------------------------------------------------------------------------|
A|-2-------------------------------------------------------------------------| < Keep this for a whole lead
D|-2-------------------------------------------------------------------------|   intro


The 3rd time the lead is played

e|-------------------------------------------------------------|
B|-------------------------------------------------------------|
G|---------------5---------------2--------------4--------------| x 2
D|-2-------------5---------------2--------------4--------------|
A|-2-------------3---------------0--------------2--------------|(Every power chord is held for 
D|-2-----------------------------------------------------------| one bar) 

The last 2 bars , instead of this :

e|---5-8---5-8---5-8---5-8---5-8-5-------|
B|-5-----5-----5-----5-----5-------------|
G|---------------------------------------|
D|---------------------------------------|
A|---------------------------------------|
D|---------------------------------------|

e|-----8-----8-----7-----7---------15h19p15-------|
B|-4-7---4-7---4-7---4-7---------17--------17-----|
G|-----------------------------16------------16---|
D|---------------------------17----------------17-|
A|-------------------------19---------------------|
D|------------------------------------------------|

Play this:
 
e|---17----21--17----------------------------------------------------------------15-19-------------|
B|-----------------18----22--18--------18--------------------------------------17-----17-----------|
G|-------------------------------17--------17--------------------------------16---------16-17-19b21|
D|-------------------------------------------17----------------------------17----------------------|
A|---------------------------------------------19----14--15--17--15--17--19------------------------| 
D|-------------------------------------------------------------------------------------------------| 


Then after this , the lead is just some 15 bends on the B string


Rhythm :

e|---------------------------------------------------------------------------|
B|---------------------------------------------------------------------------|
G|---------------------------------------------------------------------------|
D|-2-----2-----2-----1-----1-----1-------------------------------------------|
A|-2-----2-----2-----1-----1-----1-------------------------------------------| < This is also the guitar for 
D|-2-x-x-2-x-x-2-x-x-1-x-x-1-x-x-1-------------------------------------------|  The verse , Thank me later. 




************************************

| x   Dead note
| g   Grace note
| (n) Ghost note
| h   Hammer-on
| p   Pull-off
| r   Release
************************************
Suggest correction
comments
print report bad tab
4 comments total. Showing first comments.
+3 reply
Iwalkalone11 179 Oct 15, 2016 03:49 AM

the intro sounds like he's tapping

0 reply
pedrobergonsi 10 Oct 15, 2016 04:25 PM

Just do something like:

e|---------------------------------------|
B|-5-7-12--5-7-12-5-7-12-5-7-12-5-7-12-7-|
G|---------------------------------------|
D|---------------------------------------|
A|---------------------------------------|
D|---------------------------------------|

0 reply
S3venfoldism 12 Oct 17, 2016 08:53 PM

hes tapping in the beginning but the rhythm sounds great :)

guest
You may want to rate the tab now too:
select rating
Wanna post a correction for this tab? Suggest correction