Oops, an error
Loading. Please wait.

The Stage Tab

version 4
version 4

Intro

  • It is the first tab , so it's obviously the best one so far.
  • This tab shows the tapping method for the stage intro.
  • My adaptation of the intro by ear.
  • Detailed tapping description, Drop D Tuning.

Whole song

  • This is my fisrt tabe, please rate and enjoy.

Interactive

346 views 45 this week
no commentswrite comment
1 2 3 4 5
2 more votes to show rating
add to favorites
launch autoscroll
font size
0
reset
how to read this tab
guitar tuner
Autoscroll
slow
fast
+/-
esc
set tempo
stop
Help us to improve Ultimate-Guitar.com Take our survey!
×
Author
Difficulty
Tuning
intermediate
D A D G B E
About this tab version
Detailed tapping description, Drop D Tuning. Was this info helpful? Yes No
[Intro]
play this part 3 times;

e|---------------------------------------------------------------------------|
B|---------------------------------------------------------------------------|
G|----h9-h12-h16--p9-h12-h16--p9-h12-h16--p9-h12-h16--p9-h12-h16-------------|
D|---------------------------------------------------------------------------|
A|---------------------------------------------------------------------------|
D|---------------------------------------------------------------------------|

e|---------------------------------------------------------------------------|
B|---------------------------------------------------------------------------|
G|---p9-h12-h17--p9-h12-h17--p9-h12-h17--p9-h12-h17--p9-h12-h17--p12---------|
D|---------------------------------------------------------------------------|
A|---------------------------------------------------------------------------|
D|---------------------------------------------------------------------------|

e|---------------------------------------------------------------------------|
B|---------------------------------------------------------------------------|
G|---p9-h14-h17--p9-h14-h17--p9-h14-h17--p9-h14-h17--p9-h14-h17--p9----------|
D|---------------------------------------------------------------------------|
A|---------------------------------------------------------------------------|
D|---------------------------------------------------------------------------|

e|---------------------------------------------------------------------------|
B|---------------------------------------------------------------------------|
G|--p8-h11-h17--p8-h11-h17--p8-h11-h16--p8-h11-h16--p8-h11-h16--p8-----------|
D|---------------------------------------------------------------------------|
A|---------------------------------------------------------------------------|
D|---------------------------------------------------------------------------|

e|---------------------------------------------------------------------------|
B|---------------------------------------------------------------------------|
G|----h9-h12-h16--p9-h12-h16--p9-h12-h16--p9-h12-h16--p9-h12-h16-------------|
D|---------------------------------------------------------------------------|
A|---------------------------------------------------------------------------|
D|---------------------------------------------------------------------------|

e|---------------------------------------------------------------------------|
B|---------------------------------------------------------------------------|
G|---p9-h12-h17--p9-h12-h17--p9-h12-h17--p9-h12-h17--p9-h12-h17--p12---------|
D|---------------------------------------------------------------------------|
A|---------------------------------------------------------------------------|
D|---------------------------------------------------------------------------|

e|---------------------------------------------------------------------------|
B|---------------------------------------------------------------------------|
G|---p9-h14-h17--p9-h14-h17--p9-h14-h17--p9-h14-h17--p9-h14-h17--p9----------|
D|---------------------------------------------------------------------------|
A|---------------------------------------------------------------------------|
D|---------------------------------------------------------------------------|

e|---------------------------------------------h11-h14-h19-p14-p11-----------|
B|-----------------------------------------------------------------h12-------|
G|--p8-h11-h17--p8-h11-h17--p8-h11-p8--h11-h16-------------------------h11---|
D|---------------------------------------------------------------------------|
A|---------------------------------------------------------------------------|
D|---------------------------------------------------------------------------|


[Part 2]

e|---------------------------------------------------------------------------|
B|---------------------------------------------------------------------------|
G|----h9-h12-h16--p9-h12-h16--p9-h12-h16--p9-h12-h16--p9-h12-h16-------------|
D|---------------------------------------------------------------------------|
A|---------------------------------------------------------------------------|
D|---------------------------------------------------------------------------|

e|---------------------------------------------------------------------------|
B|---------------------------------------------------------------------------|
G|---p9-h12-h17--p9-h12-h17--p9-h12-h17--p9-h12-h17--p9-h12-h17--p12---------|
D|---------------------------------------------------------------------------|
A|---------------------------------------------------------------------------|
D|---------------------------------------------------------------------------|

e|---------------------------------------------------------------------------|
B|---------------------------------------------------------------------------|
G|---p9-h14-h17--p9-h14-h17--p9-h14-h17--p9-h14-h17--p9-h14-h17--p9----------|
D|---------------------------------------------------------------------------|
A|---------------------------------------------------------------------------|
D|---------------------------------------------------------------------------|


e|------------h11-h14-h19-h20-p19-p14----------------------------------------|
B|-----------------------------------h16-h16---------------------------------|
G|-p8-h11-h16----------------------------------------------------------------|
D|---------------------------------------------------------------------------|
A|---------------------------------------------------------------------------|
D|---------------------------------------------------------------------------|

e|------------h14-h19-h19-p14------------------------------------------------|
B|----------------------------h16-h19-p16-p12--------------------------------|
G|---------------------------------------------------------------------------|
D|----------------------------------------------h13-h16----------------------|
A|---------------------------------------------------------------------------|
D|---------------------------------------------------------------------------|

e|---------------------------------------------------------------------------|
B|---------------------------------------------------------------------------|
G|----h9-h12-h16--p9-h12-h16--p9-h12-h16--p9-h12-h16--p9-h12-h16-------------|
D|---------------------------------------------------------------------------|
A|---------------------------------------------------------------------------|
D|---------------------------------------------------------------------------|

e|---------------------------h12-/15-/20-\15-\12-----------------------------|
B|-----------------------------------------------h13-------------------------|
G|---p9-h12-h17--p9-h12-h17--------------------------h12---------------------|
D|--------------------------------------------------------h14-\10-/14--------|
A|---------------------------------------------------------------------------|
D|---------------------------------------------------------------------------|

e|-17-20-17-12---------------------------------------------------------------|
B|-------------13------------------------------------------------------------|
G|----------------14-17-21-17-14----14-17-14---------------------------------|
D|-------------------------------14----------14-------14---------------------|
A|----------------------------------------------15-12----15-12-11------------|
D|----------------------------------------------------------------10---------|

e|------------------------------------------------------19-20-19-------------|
B|------------------------------------------------18-19-----------16-/19-19--|
G|------------------------------------------16-17----------------------------|
D|------------------------------------15-16----------------------------------|
A|---------13-14-13-------------14-15----------------------------------------|
D|--/13-16----------16-13-15-16----------------------------------------------|

e|---------------------------------------------------------------------------|
B|---15b^---------15b^----------16b^-------------(16)b^------------15b^------|
G|---------------------------------------------------------------------------|
D|---------------------------------------------------------------------------|
A|---------------------------------------------------------------------------|
D|---------------------------------------------------------------------------|

e|---------------------------------------------------------------------------|
B|---15b^---------15b^----------15b^-----------------------------------------|
G|---------------------------------------------------------------------------|
D|---------------------------------------------------------------------------|
A|---------------------------------------------------------------------------|
D|---------------------------------------------------------------------------|



************************************

| h  Hammer-on
| p  Pull-off
| /  Slide up
| \  Slide down
| b^ bend up

************************************
Suggest correction
Give kudos to tab author, rate the tab!
1 2 3 4 5
comments
print report bad tab
guest
You may want to rate the tab now too:
select rating
Wanna post a correction for this tab? Suggest correction