Oops, an error
Loading. Please wait.

The Stage Tab

version 1
version 1

Solo

Whole song

  • This is my fisrt tabe, please rate and enjoy.

Interactive

6,013 views 378 this week
no commentswrite comment
1 2 3 4 5
x 10
add to favorites
launch autoscroll
font size
0
reset
how to read this tab
guitar tuner
Autoscroll
slow
fast
+/-
esc
set tempo
stop
Help us to improve Ultimate-Guitar.com Take our survey!
×
Author
Difficulty
Tuning
Tabbers playing skills
intermediate
D A D G B E
advanced +
Artist: Avenged Sevenfold 
Song: The Stage
Tuning: Drop D ( D A D G B E ) 
Tabbed by Lorcan Ward

Solo starts at 3:39 

Guitar Cover Video:
https://www.youtube.com/watch?v=7AQcrb0g3TQ

This one was very tricky to tab, I'll get the rest of the leads tabbed and
maybe a lesson breakdown if there is interest. Watch my video as a reference.

E|------------------------------------------------------------------12--|
B|----------------------------------------------------------------------|
G|----------8tr9---11tr12---/16-16-16~~~~-\12~~~\---/12--16--12--16-----|
D|--9tr10---------------------------------------------------------------|
A|----------------------------------------------------------------------|
D|----------------------------------------------------------------------|

E|------12--15--12--15\19p15--------------------------------------------|
B|---------------------------17-----------------------------------------|
G|--16--------------------------16----------16-19-17b19-----(19)r17-----|
D|---------------------------------17----17-----------------------------|
A|------------------------------------19--------------------------------|
D|----------------------------------------------------------------------|

E|----------------------------------------------------------------------|
B|-------------------------------15------17--17b18----r17p15------------|
G|--16---17p16\14~~~~\------/14------14------------------------14~~~\---|
D|----------------------------------------------------------------------|
A|----------------------------------------------------------------------|
D|----------------------------------------------------------------------|

  Syn uses an octave pedal for this section
E|----------------/11--(23)~~-----/14--(26)~~-----/19--(31)~~-----------|
B|--/12--(24)~~---------------------------------------------------------|
G|----------------------------------------------------------------------|
D|----------------------------------------------------------------------|
A|----------------------------------------------------------------------|
D|----------------------------------------------------------------------|

Or you can play it with pinch harmonics
E|----------------/11--11~~-----/14--14~~-----/19--19~~-----------------|
B|--\12--12~~----------ph------------ph------------ph-------------------|
G|-------ph-------------------------------------------------------------|
D|----------------------------------------------------------------------|
A|----------------------------------------------------------------------|
D|----------------------------------------------------------------------|

E|------------------------------------------------15h19b20~~~~----------|
B|--20---20b22----r20--19--20p19--17~~---------17-----------------------|
G|------------------------------------------16--------------------------|
D|--------------------------------------/17-----------------------------|
A|----------------------------------------------------------------------|
D|----------------------------------------------------------------------|

E|--pb20b22~~~~r20~~~~----------/17p13----------------------------------|
B|-------------------------------------15--13--10h13/15\13--10/13\10----|
G|----------------------------------------------------------------------|
D|----------------------------------------------------------------------|
A|----------------------------------------------------------------------|
D|----------------------------------------------------------------------|

E|----------------------------------------------------------------------|
B|--8/10\8--------------------------------------------------------------|
G|----------10/12\10--7/10\7--------------------------------------------|
D|----------------------------10/12\10p7/10\7---------------------------|
A|---------------------------------------------10/12\10p8~~~------------|
D|----------------------------------------------------------------------|

E|----------------------------------------------------------------------|
B|----------------------------------------------------------------------|
G|----------------------------------------6--7--8~~~~----9h10h11--12----|
D|----------------------7--8--9~~~~-------------------------------------|
A|--7--8--9~~~~---------------------------------------------------------|
D|----------------------------------------------------------------------|

E|----------------------------------------------------------------------|
B|--10h11h12--13p12p11p10----------------10h11h12/16~~~------/19~~~~----|
G|------------------------13p12p11h12h13--------------------------------|
D|----------------------------------------------------------------------|
A|----------------------------------------------------------------------|
D|----------------------------------------------------------------------|

E|--/--17p14--------------------11h14\11--8-----------------------------|
B|-----------16--------------13-------------10--------------------------|
G|--------------17p14\11--14-------------------11p8-----------8h11------|
D|---------------------------------------------------10-7h10------------|
A|----------------------------------------------------------------------|
D|----------------------------------------------------------------------|

E|----------------------------------------------------------------------|
B|----------------------------------------------------------------------|
G|--9~~~~~~~~-----------------------------------------------------------|
D|----------------------------------------------------------------------|
A|----------------------------------------------------------------------|
D|----------------------------------------------------------------------|

| h   Hammer-on
| p   Pull-off
| r   Release
| b   Bend
| br  Bend release
| pb  Pre-bend
| pbr Pre-bend release
| /   Slide up
| \   Slide down
| ~   Vibrato
| TR  Trill
| PH  Pinch harmonic
Suggest correction
comments
print report bad tab
guest
You may want to rate the tab now too:
select rating
Wanna post a correction for this tab? Suggest correction