Oops, an error
Loading. Please wait.

The Stage solo tab

version 2
version 2

Solo

  • The acoustic ending / solo for the stage by Avenged Sevenfold.

Whole song

  • This is my fisrt tabe, please rate and enjoy.

Interactive

1,333 views 24 this week
no commentswrite comment
1 2 3 4 5
x 4
add to favorites
×
Save as Personal and add changes to this tab that will be seen only by you. Learn more ›
×
You can save this tab as Personal to edit and correct it or add notes. All changes will be seen only by you. Learn more »
launch autoscroll
font size
0
reset
how to read this tab
guitar tuner
backing track
0:00
0:00
edit
Autoscroll
slow
fast
+/-
esc
set tempo
stop
About this tab version
The acoustic ending / solo for the stage by Avenged Sevenfold. Was this info helpful? Yes No
Starts at 7:54 (Beginning of acoustic - note that electric guitar is still playing)

e|---7----7--8---10p8-------13--13--12--10-----13p10-----11------------------|
B|---8----8--10-------------15--15---------10--------10--10------------------|
G|---9----9--9----------10--14--14-----------------------11------------------|
D|-------------------------------------------------------9-------------------|
A|---------------------------------------------------------------------------|
D|---------------------------------------------------------------------------|

e|---11-8-7-8-7----7---------------------------------------------------------|
B|--------------10---10-8-7--------------------------------------------------|
G|--------------------------9-8-9--------------------------------------------|
D|---------------------------------------------------------------------------|
A|---------------------------------------------------------------------------|
D|---------------------------------------------------------------------------|


8:08 (now it is just acoustic)

e|---7---7-7-7--7--7---8---10p8-8-8--8--8--10--12--13----13p10------13p10----|
B|---8---8-8-8--8--8---10---------10-10-10---------15-----------10---------10|
G|---9---9-9-9--9--9---9----------9--9--9----------14------------------------|
D|---------------------------------------------------------------------------|
A|---------------------------------------------------------------------------|
D|---------------------------------------------------------------------------|

e|---11---14-----12-----Soft Harmonic-(5)------------------------------------|
B|---10----------12-------------------(5)------------------------------------|
G|---11----------12----------------------------------------------------------|
D|---9-----------------------------------------------------------------------|
A|---------------------------------------------------------------------------|
D|---------------------------------------------------------------------------|


************************************

| p   Pull-off

************************************

            
            
Suggest correction
Creating personal tab
Creating personal tab
You can edit any tab online and save it as your Personal.

You can edit, replace or remove any tab part or add personal notes – all changes will be seen only by you.

Personal tabs can be accessed anytime from any device, even offline.
Learn more »
comments
print report bad tab
guest
You may want to rate the tab now too:
select rating
Wanna post a correction for this tab? Suggest correction