Oops, an error
Loading. Please wait.

The Stage Tab

version 1
version 1

Whole song

  • This is my fisrt tabe, please rate and enjoy.

Interactive

34,903 views 1,464 this week
2 commentsread comments
1 2 3 4 5
x 32
add to favorites
launch autoscroll
font size
0
reset
how to read this tab
guitar tuner
Autoscroll
slow
fast
+/-
esc
set tempo
stop
Help us to improve Ultimate-Guitar.com Take our survey!
×
Author
Difficulty
Tuning
intermediate
D A D G B E
All by ear. If there's any mistake or improvement you see. please correct me.
https://www.youtube.com/watch?v=XYl-BTG2d6o (solo)

[Intro] (0.50 - 1.32)

D|---------------------------------------------------------------------------|
B|---------------------------------------------------------------------------|
G|---------------------------------------------------------------------------|
D|---2-----5-----2----1------------------------------------------------------|
A|---2-----3-----0----1------------------------------------------------------|
D|---2----------------1------------------------------------------------------|(x10)


[Verse](1.32-2.08) (check out for rhythm )

D|---------------------------------------------------------------------------|
B|---------------------------------------------------------------------------|
G|---------------------------------------------------------------------------|
D|----2-x-2-2-2------1-x-1-1-1-----------------------------------------------|
A|----2-x-2-2-2------1-x-1-1-1-----------------------------------------------|
D|----2-x-2-2-2h5p2--1-x-1-1-1h4p1-------------------------------------------|(x10)


(2.08- 2.15)
D|---------------------------------------------------------------------------|
B|---------------------------------------------------------------------------|
G|---------------------------------------------------------------------------|
D|--------4----2---------5---2----------5------2--------5--4-----------------|
A|--------2----2---4--5--3---2---4---5--3------2---4----3--2-----------------|
D|-------------2---4--5------2---4---5---------2---4-------------------------|


[Chorus](2.15-2.30)

D|---------------------------------------------------------------------------|
B|---------------------------------------------------------------------------|
G|---------------------------------------------------------------------------|
D|-----2----5p3----0----4----------------------------------------------------|
A|-----2----3------0----2----------------------------------------------------|
D|-----2----3------0---------------------------------------------------------|

(2.30-3.04)
D|---------------------------------------------------------------------------|
B|---------------------------------------------------------------------------|
G|---------------------------------------------------------------------------|
D|----2-x-2-2-2------1-x-1-1-1-----------------------------------------------|
A|----2-x-2-2-2------1-x-1-1-1-----------------------------------------------|
D|----2-x-2-2-2h5p2--1-x-1-1-1h4p1-------------------------------------------|(x10)




(3.05- 3.12)
D|---------------------------------------------------------------------------|
B|---------------------------------------------------------------------------|
G|---------------------------------------------------------------------------|
D|--------4----2---------5---2----------5------2--------5--4-----------------|
A|--------2----2---4--5--3---2---4---5--3------2---4----3--2-----------------|
D|-------------2---4--5------2---4---5---------2---4-------------------------|


(3.12-4.06)
D|---------------------------------------------------------------------------|
B|---------------------------------------------------------------------------|
G|---------------------------------------------------------------------------|
D|-----2----5p3----7----4----------------------------------------------------|
A|-----2----3------5----2----------------------------------------------------|
D|-----2----3----------------------------------------------------------------|


(4.15-4.55)chords- Em D G Am G D

[solo rhythm ](4.55-5.24)

D|---------------------------------------------------------------------------|
B|---------------------------------------------------------------------------|
G|---------------------------------------------------------------------------|
D|------5---------8-------10------4------------------------------------------|
A|------5---------6-------8-------5------------------------------------------|
D|------5---------5-------7-------4------------------------------------------|

[second verse](5.24-6.20)

D|---------------------------------------------------------------------------|
B|---------------------------------------------------------------------------|
G|---------------------------------------------------------------------------|
D|------5---------8-------10------4------------------------------------------|
A|------5---------6-------8-------5------------------------------------------|
D|------5---------5-------7-------4------------------------------------------|


(6.20-6.35)
D|---------------------------------------------------------------------------|
B|---------------------------------------------------------------------------|
G|---------------------------------------------------------------------------|
D|----2-x-2-2-2------1-x-1-1-1-----------------------------------------------|
A|----2-x-2-2-2------1-x-1-1-1-----------------------------------------------|
D|----2-x-2-2-2h5p2--1-x-1-1-1h4p1-------------------------------------------|(x10)

(6.35-6.41)
D|---------------------------------------------------------------------------|
D|---------------------------------------------------------------------------|
B|---------------------------------------------------------------------------|
G|---------------------------------------------------------------------------|
D|--------4----2---------5---2----------5------2--------5--4-----------------|
A|--------2----2---4--5--3---2---4---5--3------2---4----3--2-----------------|
D|-------------2---4--5------2---4---5---------2---4-------------------------|


(6.41-8.00)
D|---------------------------------------------------------------------------|
B|---------------------------------------------------------------------------|
G|---------------------------------------------------------------------------|
D|-----2----5p3----7----4----------------------------------------------------|
A|-----2----3------5----2----------------------------------------------------|
D|-----2----3----------------------------------------------------------------|


************************************

| x   Mute
| h   Hammer-on
| p   Pull-off
| r   Release

************************************
Suggest correction
comments
print report bad tab
2 comments total.
+2 reply
nicholasp248 464 Oct 17, 2016 10:32 PM

Well what you have seems correct. Can't wait to see tabs for the solos and stuff

+1 reply
Iwalkalone11 179 Oct 19, 2016 05:06 PM

thanks for checking :)

guest
You may want to rate the tab now too:
select rating
Wanna post a correction for this tab? Suggest correction