Oops, an error
Loading. Please wait.

The Stage Tab

version 2
version 2

Whole song

  • This is my fisrt tabe, please rate and enjoy.

Interactive

2,401 views 384 this week
4 commentsread comments
1 2 3 4 5
x 7
add to favorites
launch autoscroll
font size
0
reset
how to read this tab
guitar tuner
Autoscroll
slow
fast
+/-
esc
set tempo
stop
Help us to improve Ultimate-Guitar.com Take our survey!
×
Author
Difficulty
intermediate
About this tab version
This is my fisrt tabe, please rate and enjoy. Was this info helpful? Yes No
----------------------------------------------------------------------------------------
                             The Stage – Avenged Sevenfold
----------------------------------------------------------------------------------------
Tabbed by: Bruno997
Email: bos-97@hotmail.com

Hi guys, I'm Bruno, live in Brazil and this is my first tab, I hope you enjoy any doubt, comment here and rate
this work! This song was very hard to take.

Guitar 1 (Syny)  Drop D (e B G D A D)
Guitar 2 (Extra) Drop D (e B G D A D)
Guitar 3 (Zacky) Drop D (e B G D A D)
Guitar 4 (Syny Clean) Drop D (e B G D A D)
Guitar 5 (Zacky Clean)Drop D (e B G D A D)
Acoustic Guitar 1 Standard (e B G D A E) 
Acoustic Guitar 2 Standard (e B G D A E) 


Intro

(0:37) Play this 3 times

Guitar 1

E|--------------------------------------------------------------------------|
B|--------------------------------------------------------------------------|
G|-9h11t16-9h11t16-9h11t16-9h11t16-9h11t16p11-------------------------------|
D|--------------------------------------------------------------------------|
A|--------------------------------------------------------------------------|
D|--------------------------------------------------------------------------|

E|--------------------------------------------------------------------------|
B|--------------------------------------------------------------------------|
G|-9h12t17-9h12t17-9h12t17-9h12t17-9h12t17p12-------------------------------|
D|--------------------------------------------------------------------------|
A|--------------------------------------------------------------------------|
D|--------------------------------------------------------------------------|

Syn play this part like this in live
E|--------------------------------------------------------------------------|
B|--h10-----h10-----h10-----h10-----h10-------------------------------------|
G|-9---t17-9---t17-9---t17-9---t17-9---t17p9--------------------------------|
D|--------------------------------------------------------------------------|
A|--------------------------------------------------------------------------|
D|--------------------------------------------------------------------------|

E|--------------------------------------------------------------------------|
B|--------------------------------------------------------------------------|
G|-8h11t17-8h11t17-8h11t16-8h11t16-8h11t16p8--------------------------------|
D|--------------------------------------------------------------------------|
A|--------------------------------------------------------------------------|
D|--------------------------------------------------------------------------|

E|--------------------------------------------------------------------------|
B|--------------------------------------------------------------------------|
G|-9h11t16-9h11t16-9h11t16-9h11t16-9h11t16p11-------------------------------|
D|--------------------------------------------------------------------------|
A|--------------------------------------------------------------------------|
D|--------------------------------------------------------------------------|

E|--------------------------------------------------------------------------|
B|--------------------------------------------------------------------------|
G|-9h12t17-9h12t17-9h12t17-9h12t17-9h12t17p12-------------------------------|
D|--------------------------------------------------------------------------|
A|--------------------------------------------------------------------------|
D|--------------------------------------------------------------------------|

E|--------------------------------------------------------------------------|
B|--h10-----h10-----h10-----h10-----h10-------------------------------------|
G|-9---t17-9---t17-9---t17-9---t17-9---t17p9--------------------------------|
D|--------------------------------------------------------------------------|
A|--------------------------------------------------------------------------|
D|--------------------------------------------------------------------------|

E|------------------------------h11h14t19p14p11h14p11-----------------------|
B|---------------------------------------------------h12--------------------|
G|-8h11t17-8h11t17-8h11—8h11t16-------------------------h11/8---------------|
D|--------------------------------------------------------------------------|
A|--------------------------------------------------------------------------|
D|--------------------------------------------------------------------------|

(1:20)
E|--------------------------------------------------------------------------|
B|--------------------------------------------------------------------------|
G|-9h11t16-9h11t16-9h11t16-9h11t16-9h11t16p11-------------------------------|
D|--------------------------------------------------------------------------|
A|--------------------------------------------------------------------------|
D|--------------------------------------------------------------------------|

E|--------------------------------------------------------------------------|
B|--------------------------------------------------------------------------|
G|-9h12t17-9h12t17-9h12t17-9h12t17-9h12t17p12-------------------------------|
D|--------------------------------------------------------------------------|
A|--------------------------------------------------------------------------|
D|--------------------------------------------------------------------------|

E|--------------------------------------------------------------------------|
B|--h10-----h10-----h10-----h10-----h10-------------------------------------|
G|-9---t17-9---t17-9---t17-9---t17-9---t17p9--------------------------------|
D|--------------------------------------------------------------------------|
A|--------------------------------------------------------------------------|
D|--------------------------------------------------------------------------|

E|-----------h11h14t19/20\19p14p11h14t19/23\19p14p11h14p11---h11------------|
B|--------h12---------------------------------------------h12---h12---------|
G|-8h11t16---------------------------------------------------------h11/8----|
D|--------------------------------------------------------------------------|
A|--------------------------------------------------------------------------|
D|--------------------------------------------------------------------------|

E|--------------------------------------------------------------------------|
B|--------------------------------------------------------------------------|
G|-9h11t16-9h11t16-9h11t16-9h11t16-9h11t16p11-------------------------------|
D|--------------------------------------------------------------------------|
A|--------------------------------------------------------------------------|
D|--------------------------------------------------------------------------|

E|-----------------h12h15t20p15p12------------------------------------------|
B|--------------------------------h13---------------------------------------|
G|-9h12t17-9h12t17-------------------h12/9---h9-----------------------------|
D|----------------------------------------h10-------------------------------|
A|--------------------------------------------------------------------------|
D|--------------------------------------------------------------------------|

E|-t17/20\17p12p8-----------------------------------------------------------|
B|----------------t13/17\13p10----------------------------------------------|
G|----------------------------h9-t14/17\14p9p5------------------------------|
D|--------------------------------------------h7----------------------------|
A|-----------------------------------------------t12/15\12p7----------------|
D|----------------------------------------------------------h10-------------|

E|----------------------------------------h11h14t19/20\19p14p11h14p11-------|
B|----------------------------h12h13t17/19----------------------------------|
G|--------------------------------------------------------------------------|
D|------------------h8h9t14/16----------------------------------------------|
A|-h6h9t13/14p9-h6h9--------------------------------------------------------|
D|--------------------------------------------------------------------------|

(1:35)

E|--------------------------------------------------------------------------|
B|-15b17-19r16-15b17--------------------------------------------------------|
G|--------------------------------------------------------------------------|
D|--------------------------------------------------------------------------|
A|--------------------------------------------------------------------------|
D|--------------------------------------------------------------------------|


Intro

(0:52)

Guitar 3

E|--------------------------------------------------------------------------|
B|--------------------------------------------------------------------------|
G|--------------------------------------------------------------------------|
D|-2~~~~~~~~~~~~~~~~~~~~~~~~~~~~~~~~~~-2~~~~~~~~~~~~~~~~~~~~~~~~~~~~~~~~~~--|
A|-2~~~~~~~~~~~~~~~~~~~~~~~~~~~~~~~~~~-2~~~~~~~~~~~~~~~~~~~~~~~~~~~~~~~~~~--|
D|-2~~~~~~~~~~~~~~~~~~~~~~~~~~~~~~~~~~-2~~~~~~~~~~~~~~~~~~~~~~~~~~~~~~~~~~--|

(1:06)

E|--------------------------------------------------------------------------|
B|--------------------------------------------------------------------------|
G|--------5~~~~--2~~~~------------------------------------------------------|
D|-2~~~~--5~~~~--2~~~~--4~~~~-----------------------------------------------|
A|-2~~~~--3~~~~--0~~~~--2~~~~-----------------------------------------------|
D|-2~~~~----------------1~~~~-----------------------------------------------|

(1:35)

E|--------------------------------------------------------------------------|
B|--------------------------------------------------------------------------|
G|--------------------------------------------------------------------------|
D|-2-----2------------1-----1------------2-----2----------------------------|
A|-2-----2------------1-----1------------2-----2------------1-1-1-1-1-------|
D|-2-2-2-2-2-2-2h5p2--1-1-1-1-1-1-1h4p1--2-2-2-2-2-2-2h5p2--1-1-1-1-1-------|
     . .   . .          . .   . .          . .   . .        . . . . .

Verse 1 – Both Guitars
(1:42)
E|---------------------------------------------------------------------------|
B|---------------------------------------------------------------------------|
G|---------------------------------------------------------------------------|
D|-2-----2------------1-----1------------2-----2------------1-----1----------|
A|-2-----2------------1-----1------------2-----2------------1-----1----------|
D|-2-2-2-2-2-2-2h5p2--1-1-1-1-1-1-1h4p1--2-2-2-2-2-2-2h5p2--1-1-1-1-1-1-1h4p1|
     . .   . .          . .   . .          . .   . .          . .   . .     

E|---------------------------------------------------------------------------|
B|---------------------------------------------------------------------------|
G|---------------------------------------------------------------------------|
D|-2-----2------------1-----1------------2-----2------------1-----1----------|
A|-2-----2------------1-----1------------2-----2------------1-----1----------|
D|-2-2-2-2-2-2-2h5p2--1-1-1-1-1-1-1h4p1--2-2-2-2-2-2-2h5p2--1-1-1-1-1-1-1h4p1|
     . .   . .          . .   . .          . .   . .          . .   . .     

E|---------------------------------------------------------------------------|
B|---------------------------------------------------------------------------|
G|---------------------------------------------------------------------------|
D|-2-----2-------------------------------2-----2------------1-----1----------|
A|-2-----2-------------------------------2-----2------------1-----1----------|
D|-2-2-2-2-2-2-2h5p2--1-1-1-1-1-1-1-1----2-2-2-2-2-2-2h5p2--1-1-1-1-1-1-1h4p1|
     . .   . .        . . . . . . . .      . .   . .          . .   . .     

E|---------------------------------------------------------------------------|
B|---------------------------------------------------------------------------|
G|---------------------------------------------------------------------------|
D|-2-----2------------1-----1------------2-----2------------1-----1----------|
A|-2-----2------------1-----1------------2-----2------------1-----1----------|
D|-2-2-2-2-2-2-2h5p2--1-1-1-1-1-1-1h4p1--2-2-2-2-2-2-2h5p2--1-1-1-1-1-1-1h4p1|
     . .   . .          . .   . .          . .   . .          . .   . .     

E|---------------------------------------------------------------------------|
B|---------------------------------------------------------------------------|
G|---------------------------------------------------------------------------|
D|-2-----2------------1-----1------------------------------------------------|
A|-2-----2------------1-----1------------------------------------------------|
D|-2-2-2-2-2-2-2h5p2--1-1-1-1-1-1-1h4p1--------------------------------------|
     . .   . .          . .   . .      
 
Pre Chorus - Both Guitars

(2:10)

E|---------------------------------------------------------------------------|
B|---------------------------------------------------------------------------|
G|---------------------------------------------------------------------------|
D|-4--------4--------5------5-4--------4--------5----------------------------|
A|-2--------2--------3------3-2--------2--------3----------------------------|
D|----2-4-5----2-4-5----2-5------2-4-5----2-4-5---2-5-4----------------------|
      . . .    . . .    . .      . . .    . . .   . . .

Chorus 

(2:17)

Guitar 1
   
E|---------------------------------------------------------------------------|
B|---------------------------------------------------------------------------|
G|-/9~-11-12-11p9-10~-12-14-12h14p12-7~-9-10-9p7-8~-9-11---------------------|
D|---------------------------------------------------------------------------|
A|---------------------------------------------------------------------------|
D|---------------------------------------------------------------------------|

Guitar 2

E|---------------------------------------------------------------------------|
B|-/8~-10-12-10p8-10~-12-13-12h13p12-----------------------------------------|
G|-----------------------------------10~-12-14-12p10-11~-12-14---------------|
D|---------------------------------------------------------------------------|
A|---------------------------------------------------------------------------|
D|---------------------------------------------------------------------------|

Guitar 3

E|---------------------------------------------------------------------------|
B|---------------------------------------------------------------------------|
G|---------------------------------------------------------------------------|
D|-2---------------3------------------7-------------4------------------------|
A|-2---------------3------------------5-------------2------------------------|
D|-2---------------3---------------------------------------------------------|


Pre Verse - Both Guitars

(2:30)

E|--------------------------------------------------------------------------|
B|--------------------------------------------------------------------------|
G|--------------------------------------------------------------------------|
D|-2-----2------------1-----1------------2-----2----------------------------|
A|-2-----2------------1-----1------------2-----2------------1-1-1-1-1-------|
D|-2-2-2-2-2-2-2h5p2--1-1-1-1-1-1-1h4p1--2-2-2-2-2-2-2h5p2--1-1-1-1-1-------|
     . .   . .          . .   . .          . .   . .        . . . . .


Verse 1 – Both Guitars

(2:39)

E|---------------------------------------------------------------------------|
B|---------------------------------------------------------------------------|
G|---------------------------------------------------------------------------|
D|-2-----2------------1-----1------------2-----2------------1-----1----------|
A|-2-----2------------1-----1------------2-----2------------1-----1----------|
D|-2-2-2-2-2-2-2h5p2--1-1-1-1-1-1-1h4p1--2-2-2-2-2-2-2h5p2--1-1-1-1-1-1-1h4p1|
     . .   . .          . .   . .          . .   . .          . .   . .     

E|---------------------------------------------------------------------------|
B|---------------------------------------------------------------------------|
G|---------------------------------------------------------------------------|
D|-2-----2------------1-----1------------2-----2------------1-----1----------|
A|-2-----2------------1-----1------------2-----2------------1-----1----------|
D|-2-2-2-2-2-2-2h5p2--1-1-1-1-1-1-1h4p1--2-2-2-2-2-2-2h5p2--1-1-1-1-1-1-1h4p1|
     . .   . .          . .   . .          . .   . .          . .   . .     

E|---------------------------------------------------------------------------|
B|---------------------------------------------------------------------------|
G|---------------------------------------------------------------------------|
D|-2-----2-------------------------------2-----2------------1-----1----------|
A|-2-----2-------------------------------2-----2------------1-----1----------|
D|-2-2-2-2-2-2-2h5p2--1-1-1-1-1-1-1-1----2-2-2-2-2-2-2h5p2--1-1-1-1-1-1-1h4p1|
     . .   . .        . . . . . . . .      . .   . .          . .   . .     

E|---------------------------------------------------------------------------|
B|---------------------------------------------------------------------------|
G|---------------------------------------------------------------------------|
D|-2-----2------------1-----1------------2-----2------------1-----1----------|
A|-2-----2------------1-----1------------2-----2------------1-----1----------|
D|-2-2-2-2-2-2-2h5p2--1-1-1-1-1-1-1h4p1--2-2-2-2-2-2-2h5p2--1-1-1-1-1-1-1h4p1|
     . .   . .          . .   . .          . .   . .          . .   . .     

E|---------------------------------------------------------------------------|
B|---------------------------------------------------------------------------|
G|---------------------------------------------------------------------------|
D|-2-----2------------1-----1------------------------------------------------|
A|-2-----2------------1-----1------------------------------------------------|
D|-2-2-2-2-2-2-2h5p2--1-1-1-1-1-1-1h4p1--------------------------------------|
     . .   . .          . .   . .      
 
Pre Chorus - Both Guitars

(3:06)

E|---------------------------------------------------------------------------|
B|---------------------------------------------------------------------------|
G|---------------------------------------------------------------------------|
D|-4--------4--------5------5-4--------4--------5----------------------------|
A|-2--------2--------3------3-2--------2--------3----------------------------|
D|----2-4-5----2-4-5----2-5------2-4-5----2-4-5---2-5-4----------------------|
      . . .    . . .    . .      . . .    . . .   . . .
Chorus 

(3:14)

Guitar 1
   
E|---------------------------------------------------------------------------|
B|---------------------------------------------------------------------------|
G|-/9~-11-12-11p9-10~-12-14-12h14p12-7~-9-10-9p7-8~-9-11---------------------|
D|---------------------------------------------------------------------------|
A|---------------------------------------------------------------------------|
D|---------------------------------------------------------------------------|

E|---------------------------------------------------------------------------|
B|---------------------------------------------------------------------------|
G|-/9~-9-11-12-11h12p11-9-11-12-10~-10-12-14-12h14p12-10-12-10-9-10-9--------|
D|---------------------------------------------------------------------------|
A|---------------------------------------------------------------------------|
D|---------------------------------------------------------------------------|

E|---------------------------------------------------------------------------|
B|---------------------------------------------------------------------------|
G|-7~-9-10-9h10p9-7-9-7-5-7-5-4~---------------------------------------------|
D|---------------------------------------------------------------------------|
A|---------------------------------------------------------------------------|
D|---------------------------------------------------------------------------|

Guitar 2

E|---------------------------------------------------------------------------|
B|-/8~-10-12-10p8-10~-12-13-12h13p12-----------------------------------------|
G|-----------------------------------10~-12-14-12p10-11~-12-14---------------|
D|---------------------------------------------------------------------------|
A|---------------------------------------------------------------------------|
D|---------------------------------------------------------------------------|

E|---------------------------------------------------------------------------|
B|-/8~-8-10-12-10h12p10-8-10-12-10~-10-12-13-12h13p12-10-12-10-8-10-8--------|
G|---------------------------------------------------------------------------|
D|---------------------------------------------------------------------------|
A|---------------------------------------------------------------------------|
D|---------------------------------------------------------------------------|

E|---------------------------------------------------------------------------|
B|-6~-6-8-10-8h10p8-6-8-6-5-6-5-4~-------------------------------------------|
G|---------------------------------------------------------------------------|
D|---------------------------------------------------------------------------|
A|---------------------------------------------------------------------------|
D|---------------------------------------------------------------------------|

Guitar 3 – Play this 2 times

E|---------------------------------------------------------------------------|
B|---------------------------------------------------------------------------|
G|---------------------------------------------------------------------------|
D|-2---------------3------------------7-------------4------------------------|
A|-2---------------3------------------5-------------2------------------------|
D|-2---------------3---------------------------------------------------------|

Solo 1

(3:40)

Guitar 1

E|---------------------------------------------------------------------------|
B|----------------------7h8p7h8p7-12h13p12h13p12-----------------------------|
G|-4h5p4h5p4—8h9p8h9p8----------------------------12~------------------------|
D|---------------------------------------------------------------------------|
A|---------------------------------------------------------------------------|
D|---------------------------------------------------------------------------|

E|----------------12----12--15-12-15-19p15-----------------------------------|
B|-----------------------------------------17--------------------------------|
G|----12-16-12-16----16-----------------------16----------16h19--------------|
D|-14--------------------------------------------17----17--------------------|
A|--------------------------------------------------19-----------------------|
D|---------------------------------------------------------------------------|

E|---------------------------------------------------------------------------|
B|------------------------------15----17-17b18r17-15-------------------------|
G|-17b19r17--16-17p16\14~---/14----14----------------14~---------------------|
D|---------------------------------------------------------------------------|
A|---------------------------------------------------------------------------|
D|---------------------------------------------------------------------------|

E|-------------------/14-14*--/17-17*--15-15b17r15-14-15p14------------------|
B|----------/16-16*-----------------------------------------17~--------------|
G|-/16-16*-------------------------------------------------------------------|
D|---------------------------------------------------------------------------|
A|---------------------------------------------------------------------------|
D|---------------------------------------------------------------------------|

E|-----------15-19b20-20b22r20~----------------------------------------------|
B|--------17-----------------------------------------------------------------|
G|-----16--------------------------------------------------------------------|
D|-/17-----------------------------------------------------------------------|
A|---------------------------------------------------------------------------|
D|---------------------------------------------------------------------------|
 
E|-/17p13--------------------------------------------------------------------|
B|--------17p13\10-13/17\13-10h13p10-8/10\8----------------------------------|
G|------------------------------------------10/14\10-7h10p7------------------|
D|----------------------------------------------------------10/14\10-7h10p7--|
A|---------------------------------------------------------------------------|
D|---------------------------------------------------------------------------|

E|---------------------------------------------------------------------------|
B|-------------------------------------------------10-11-12-13-12-11-10------|
G|--------------------------------------9-10-11-12----------------------12---|
D|------------------7-8-9~--10-11-12-13--------------------------------------|
A|-8/12\8--7-8-7-6~----------------------------------------------------------|
D|---------------------------------------------------------------------------|

E|-----------------/14~-/17p14-------------------11-14\11-8------------------|
B|-10-11-12-13/16~-------------16-------------13------------10---------------|
G|--------------------------------17-14\11h14------------------11p8----------|
D|------------------------------------------------------------------10-------|
A|---------------------------------------------------------------------------|
D|---------------------------------------------------------------------------|

E|---------------------------------------------------------------------------|
B|------8h10p8~--------------------------------------------------------------|
G|-8h11----------------------------------------------------------------------|
D|---------------------------------------------------------------------------|
A|---------------------------------------------------------------------------|
D|---------------------------------------------------------------------------|

Guitar 2

(4:02)

E|-/13p10--------------------------------------------------------------------|
B|--------13p10/6-10/13\10-6h10p6--------------------------------------------|
G|--------------------------------9/10\9-7h10p7------------------------------|
D|----------------------------------------------10/14\10-7h10p7--------------|
A|--------------------------------------------------------------8/12\8-5h8p5-|
D|---------------------------------------------------------------------------|
              (4:10)
E|------------------------/14p11------------------8-11\8-5-------------------|
B|------------/12~--/16~---------13------------10----------7-----------5h7p5~|
G|----------------------------------14-11\8-11---------------8p5---5h8-------|
D|---------------------------------------------------------------7-----------|
A|-3-5-3-2~------------------------------------------------------------------|
D|---------------------------------------------------------------------------|

Guitar 3 

E|---------------------------------------------------------------------------|
B|---------------------------------------------------------------------------|
G|---------------------------------------------------------------------------|
D|-2-----------3----------7----------4----------2---------3----------7-------|
A|-2-----------3----------5----------2----------2---------3----------5-------|
D|-2-----------3--------------------------------2---------3------------------|

E|---------------------------------------------------------------------------|
B|---------------------------------------------------------------------------|
G|---------------------------------------------------------------------------|
D|-4--------4--------5------5-4--------4--------5-------2~~~~----------------|
A|-2--------2--------3------3-2--------2--------3-------2~~~~----------------|
D|----2-4-5----2-4-5----2-5------2-4-5----2-4-5---2-5-4-2~~~~----------------|
      . . .    . . .    . .      . . .    . . .   . . .

Clean Bridge – Repeat this progression for all bridge

(4:14)

Guitar 5

E|-0--------2-3--------0--------3-2------------------------------------------|
B|-0--------3-3--------1--------3-3------------------------------------------|
G|-0--------2-0--------2--------0-2------------------------------------------|
D|-2--------0-0--------2--------0-0------------------------------------------|
A|-2----------2--------0--------2--------------------------------------------|
D|-2-------------------------------------------------------------------------|

   Em       D G        Am       G D

Clean Solo

(4:28)

Guitar 4

E|--------------------7------------------------------------8-----------------|
B|-10p8-----------8-----8—8h10p8-----8---------------10-10---10---10---------|
G|------11-7-7h9~---9------------7~--7h9p7--------/9------------9------------|
D|-----------------------------------------7-7h9~----------------------------|
A|---------------------------------------------------------------------------|
D|---------------------------------------------------------------------------|
                                     simultaneously with the second solo
E|-10---------12--------------------------------------------/12-14-15~-------|
B|----10---10----10--------8p7-------10h12p10---------------/12-15-15~--15~--|
G|-------9----------9---7~-----7--------------12-----------------------------|
D|-------------------------------7~--------------12-12/14~-------------------|
A|---------------------------------------------------------------------------|
D|---------------------------------------------------------------------------|

E|-------------------14~-14--------------------------------------------------|
B|-------12-13~--13~-15~----15-----------------------------------------------|
G|-12-14----------------------14~--------------------------------------------|
D|---------------------------------------------------------------------------|
A|---------------------------------------------------------------------------|
D|---------------------------------------------------------------------------|

Solo 2 

(4:42)

Guitar 1 
                                                  N.H
E|---------------------------------------------------------------------------|
B|--10b12r10b12-10p8------------------------------------------------5-5---5--|
G|-------------------9\7/9~\--/7\4~--/7\4~-2-2p0---5^^^^------5-5-------5----|
D|--------------------------------------------------------/7~-----7----------|
A|---------------------------------------------------------------------------|
D|---------------------------------------------------------------------------|
                                                       
E|---------------------------------------------------------------------------|
B|-8-8b10-7p5h7~-7b8r7----5-8-6b8~~r6p3-3h6/11p10-11~p10p8--8h11/13b15~r13p11|
G|----------------------7--------------6------------------11-----------------|
D|---------------------------------------------------------------------------|
A|---------------------------------------------------------------------------|
D|---------------------------------------------------------------------------|

E|-----------------------11-13b15~-------------------------------------------|
B|---11h13/15b16~~-----11----------------------------------------------------|
G|-13--------------/12-------------10b12~~r10p8-8b10~~/12-12\10-10~-10\5~/(8)|
D|---------------------------------------------------------------------------|
A|---------------------------------------------------------------------------|
D|---------------------------------------------------------------------------|

E|--------------------------------------------------------------------6-10p6---6-10----|
B|------------------------------------------------------------8-8---8--------8---------|
G|-8\7-7~-----------------------------------------------7---7-----7--------------------|
D|--------/12-10-8-10b12r10~-8-7-8~-7-----------------8---8----------------------------|
A|-------------------------------------10-9-9b10~--10----------------------------------|
D|-------------------------------------------------------------------------------------|

E|-10b11--------11h13b15r13-13b15~r13p11--11h13~------13h15-15b17-15-13-13h15-14~|
B|-----------11-------------------------13---------13----------------------------|
G|-------/12------------------------------------14-------------------------------|
D|-------------------------------------------------------------------------------|
A|-------------------------------------------------------------------------------|
D|-------------------------------------------------------------------------------|

E|-/14-15-17~--/17-18-20~--18p17h18~-----------------------------------------|
B|---------------------------------------------------------------------------|
G|---------------------------------------------------------------------------|
D|---------------------------------------------------------------------------|
A|---------------------------------------------------------------------------|
D|---------------------------------------------------------------------------|

Guitar 2 – Play this 2 times

(4:56)

E|---------------------------------------------------------------------------|
B|---------------------------------------------------------------------------|
G|---------------------------------------------------------------------------|
D|-5---------------5-----5---5-----8---------------8-----8---8---------------|
A|-5---------------5-----5---5-----6---------------6-----6---6---------------|
D|-5-5-5-5-5-5-5-5-5-5-5-5-5-5-----5-5-5-5-5-5-5-5-5-5-5-5-5-5---------------|
     . . . . . . .   . .   .         . . . . . . .   . .   . 

E|---------------------------------------------------------------------------|
B|---------------------------------------------------------------------------|
G|---------------------------------------------------------------------------|
D|-10--------------10----10--10----7---------------7-----7---7---------------|
A|-8---------------8-----8---8-----5---------------5-----5---5---------------|
D|-7-7-7-7-7-7-7-7-7-7-7-7-7-7-----4-4-4-4-4-4-4-4-4-4-4-4-4-4---------------|
     . . . . . . .   . .   .         . . . . . . .   . .   . 


Verse 2

Guitar 2

(5:26)

PLay this chords with rhythm you like to the third solo

E|---------------------------------------------------------------------------|
B|---------------------------------------------------------------------------|
G|---------------------------------------------------------------------------|
D|-5--------7--------8--------7----------------------------------------------|
A|-5--------6--------6--------5----------------------------------------------|
D|-5--------5--------7--------4----------------------------------------------|

(5:26)

Guitar 4

E|---------------------------------------------------------------------------|
B|---8-------8-------8-------8--------10----------10---------7-------7-------|
G|-----7-------7-------8-------8---------10----------10--------7-------7-----|
D|-8-----8-8-----8-8-----8-8-----8-10-------10-10-------10-7-----7-7-----7---|
A|---------------------------------------------------------------------------|
D|---------------------------------------------------------------------------|

Dual melody 

(5:37)

Guitar 1

E|------------------------------------------13-13h15~----13-15-15/17~--------|
B|-----13-15-15h16-15-13-13h15~-15-15-15-16-----------16---------------------|
G|-/14-----------------------------------------------------------------------|
D|---------------------------------------------------------------------------|
A|---------------------------------------------------------------------------|
D|---------------------------------------------------------------------------|

E|-/11-15-14~----------------------------------------------------------------|
B|------------/13-16~--------------------------------------------------------|
G|---------------------------------------------------------------------------|
D|---------------------------------------------------------------------------|
A|---------------------------------------------------------------------------|
D|---------------------------------------------------------------------------|

Guitar 2

E|------------------------------------------10-10h11~----10-11-11/13~--------|
B|-----10-11-11h13-11-10-10h11~-11-11-11-13-----------13---------------------|
G|-/11-----------------------------------------------------------------------|
D|---------------------------------------------------------------------------|
A|---------------------------------------------------------------------------|
D|---------------------------------------------------------------------------|

E|-----11-10~----------------------------------------------------------------|
B|-/13--------/10-13~--------------------------------------------------------|
G|---------------------------------------------------------------------------|
D|---------------------------------------------------------------------------|
A|---------------------------------------------------------------------------|
D|---------------------------------------------------------------------------|

Dual Sweeping 1

(5:55)

Guitar 1

E|-15p10----------------10h15p10---------------------------------------------|
B|-------11----------11----------11----------11------------------------------|
G|----------12----12----------------12----12---------------------------------|
D|-------------12----------------------12------------------------------------|
A|---------------------------------------------------------------------------|
D|---------------------------------------------------------------------------|

E|-10h15p10----------------10h15p10----------------10------------------------|
B|----------11----------11----------11----------11---------------------------|
G|-------------12----12----------------12----12------------------------------|
D|----------------12----------------------12---------------------------------|
A|---------------------------------------------------------------------------|
D|---------------------------------------------------------------------------|

E|-15p11----------------11h15p11---------------------------------------------|
B|-------11----------11----------11----------11------------------------------|
G|----------12----12----------------12----12---------------------------------|
D|-------------13----------------------13------------------------------------|
A|---------------------------------------------------------------------------|
D|---------------------------------------------------------------------------|

E|-11h15p11----------------11h15p11----------------11------------------------|
B|----------11----------11----------11----------11---------------------------|
G|-------------12----12----------------12----12------------------------------|
D|----------------13----------------------13---------------------------------|
A|---------------------------------------------------------------------------|
D|---------------------------------------------------------------------------|

E|-17p13----------------13h17p13---------------------------------------------|
B|-------13----------13----------13----------13------------------------------|
G|----------14----14----------------14----14---------------------------------|
D|-------------15----------------------15------------------------------------|
A|---------------------------------------------------------------------------|
D|---------------------------------------------------------------------------|

E|-13h17p13----------------13h17p13----------------13------------------------|
B|----------13----------13----------13----------13---------------------------|
G|-------------14----14----------------14----14------------------------------|
D|----------------15----------------------15---------------------------------|
A|---------------------------------------------------------------------------|
D|---------------------------------------------------------------------------|

E|-17p14----------------14h17p14---------------------------------------------|
B|-------15----------15----------15----------15------------------------------|
G|----------14----14----------------14----14---------------------------------|
D|-------------16----------------------16------------------------------------|
A|---------------------------------------------------------------------------|
D|---------------------------------------------------------------------------|

E|-14h17p14----------------14h17p14----------------13------------------------|
B|----------15----------15----------15----------15---------------------------|
G|-------------14----14----------------14----14------------------------------|
D|----------------16----------------------15---------------------------------|
A|---------------------------------------------------------------------------|
D|---------------------------------------------------------------------------|

E|-18p15----------------15h18p15---------------------------------------------|
B|-------15----------15----------15----------15------------------------------|
G|----------15----15----------------15----15---------------------------------|
D|-------------17----------------------17------------------------------------|
A|---------------------------------------------------------------------------|
D|---------------------------------------------------------------------------|

E|-15h18p15----------------15h18p15----------------15------------------------|
B|----------15----------15----------15----------15---------------------------|
G|-------------15----15----------------15----15------------------------------|
D|----------------17----------------------17---------------------------------|
A|---------------------------------------------------------------------------|
D|---------------------------------------------------------------------------|

E|-18p15----------------15h18p15---------------------------------------------|
B|-------16----------16----------16----------16------------------------------|
G|----------15----15----------------15----15---------------------------------|
D|-------------17----------------------17------------------------------------|
A|---------------------------------------------------------------------------|
D|---------------------------------------------------------------------------|

E|-15h18p15----------------15h18p15----------------15------------------------|
B|----------16----------16----------16----------16---------------------------|
G|-------------15----15----------------15----15------------------------------|
D|----------------17----------------------17---------------------------------|
A|---------------------------------------------------------------------------|
D|---------------------------------------------------------------------------|

E|-20p17----------------17h20p17---------------------------------------------|
B|-------18----------18----------18----------18------------------------------|
G|----------17----17----------------17----17---------------------------------|
D|-------------19----------------------19------------------------------------|
A|---------------------------------------------------------------------------|
D|---------------------------------------------------------------------------|

E|-17h20p17----------------17h20p17----------------17------------------------|
B|----------18----------18----------18----------18---------------------------|
G|-------------17----17----------------17----17------------------------------|
D|----------------18----------------------19---------------------------------|
A|---------------------------------------------------------------------------|
D|---------------------------------------------------------------------------|

E|-22p17----------------17h22p17---------------------------------------------|
B|-------19----------19----------19----------19------------------------------|
G|----------19----19----------------19----19---------------------------------|
D|-------------19----------------------19------------------------------------|
A|---------------------------------------------------------------------------|
D|---------------------------------------------------------------------------|

E|-17h20p17----------------17h20p17------------------------------------------|
B|----------19-16----16-19----------19-16-----------13-----------------------|
G|----------------17-----------------------14----14--------------------------|
D|--------------------------------------------16-----------------------------|
A|---------------------------------------------------------------------------|
D|---------------------------------------------------------------------------|


Guitar 2

E|-10p6-----------6h10p6-----------------------------------------------------|
B|------8-------8--------8-------8-------------------------------------------|
G|--------7---7------------7---7---------------------------------------------|
D|----------8----------------8-----------------------------------------------|
A|---------------------------------------------------------------------------|
D|---------------------------------------------------------------------------|

E|-6h10p6-----------6h10p6-----------6---------------------------------------|
B|--------8-------8--------8-------8-----------------------------------------|
G|----------7---7------------7---7-------------------------------------------|
D|------------8----------------8---------------------------------------------|
A|---------------------------------------------------------------------------|
D|---------------------------------------------------------------------------|

E|-11p6-----------6h11p6-----------------------------------------------------|
B|------8-------8--------8-------8-------------------------------------------|
G|--------8---8------------8---8---------------------------------------------|
D|----------8----------------8-----------------------------------------------|
A|---------------------------------------------------------------------------|
D|---------------------------------------------------------------------------|

E|-6h11p6-----------6h11p6-----------6---------------------------------------|
B|--------8-------8--------8-------8-----------------------------------------|
G|----------8---8------------8---8-------------------------------------------|
D|------------8----------------8---------------------------------------------|
A|---------------------------------------------------------------------------|
D|---------------------------------------------------------------------------|

E|-13p8----------------8h13p8----------------8-------------------------------|
B|------10----------10--------10----------10---------------------------------|
G|---------10----10--------------10----10------------------------------------|
D|------------10--------------------10---------------------------------------|
A|---------------------------------------------------------------------------|
D|---------------------------------------------------------------------------|

E|-14p10----------------10h14p10---------------------------------------------|
B|-------10----------10----------10----------10------------------------------|
G|----------11----11----------------11----11---------------------------------|
D|-------------12----------------------12------------------------------------|
A|---------------------------------------------------------------------------|
D|---------------------------------------------------------------------------|

E|-10h14p10----------------10h14p10----------------10------------------------|
B|----------10----------10----------10----------10---------------------------|
G|-------------11----11----------------11----11------------------------------|
D|----------------12----------------------12---------------------------------|
A|---------------------------------------------------------------------------|
D|---------------------------------------------------------------------------|

E|-15p10----------------10h15p10---------------------------------------------|
B|-------11----------11----------11----------11------------------------------|
G|----------12----12----------------12----12---------------------------------|
D|-------------12----------------------12------------------------------------|
A|---------------------------------------------------------------------------|
D|---------------------------------------------------------------------------|

E|-10h15p10----------------10h15p10----------------10------------------------|
B|----------11----------11----------11----------11---------------------------|
G|-------------12----12----------------12----12------------------------------|
D|----------------12----------------------12---------------------------------|
A|---------------------------------------------------------------------------|
D|---------------------------------------------------------------------------|

E|-15p11----------------11h15p11---------------------------------------------|
B|-------11----------11----------11----------11------------------------------|
G|----------12----12----------------12----12---------------------------------|
D|-------------13----------------------13------------------------------------|
A|---------------------------------------------------------------------------|
D|---------------------------------------------------------------------------|

E|-11h15p11----------------11h15p11----------------11------------------------|
B|----------11----------11----------11----------11---------------------------|
G|-------------12----12----------------12----12------------------------------|
D|----------------13----------------------13---------------------------------|
A|---------------------------------------------------------------------------|
D|---------------------------------------------------------------------------|

E|-17p13----------------13h17p13---------------------------------------------|
B|-------13----------13----------13----------13------------------------------|
G|----------14----14----------------14----14---------------------------------|
D|-------------15----------------------15------------------------------------|
A|---------------------------------------------------------------------------|
D|---------------------------------------------------------------------------|

E|-13h17p13----------------13h17p13----------------13------------------------|
B|----------13----------13----------13----------13---------------------------|
G|-------------14----14----------------14----14------------------------------|
D|----------------15----------------------15---------------------------------|
A|---------------------------------------------------------------------------|
D|---------------------------------------------------------------------------|

E|-17p14----------------14h17p14---------------------------------------------|
B|-------15----------15----------15----------15------------------------------|
G|----------14----14----------------14----14---------------------------------|
D|-------------16----------------------16------------------------------------|
A|---------------------------------------------------------------------------|
D|---------------------------------------------------------------------------|

E|-20p17----------------17h20p17---------------------------------------------|
B|-------19----------19----------19------------------------------------------|
G|----------20-17-20----------------20-17----17-20---------------------------|
D|----------------------------------------19---------------------------------|
A|---------------------------------------------------------------------------|
D|---------------------------------------------------------------------------|

Solo 3

(6:23)

Guitar 1

E|--------19p15----------------15-19p15----------15h19p15----------15--------|
B|-15b17~-------17----------17----------17----17----------17----17-----------|
G|-----------------16----16----------------16----------------16--------------|
D|--------------------17-----------------------------------------------------|
A|---------------------------------------------------------------------------|
D|---------------------------------------------------------------------------|

E|--------18p15----------------15-18p15----------15h18p15----------15--------|
B|-15b17~-------16----------16----------16----16----------16----16-----------|
G|-----------------15----15----------------15----------------15--------------|
D|--------------------17-----------------------------------------------------|
A|---------------------------------------------------------------------------|
D|---------------------------------------------------------------------------|

E|-19p15----------------15-19p15----------15h19p15----------15---------------|
B|-------17----------17----------17----17----------17----17------------------|
G|----------16----16----------------16----------------16---------------------|
D|-------------17------------------------------------------------------------|
A|---------------------------------------------------------------------------|
D|---------------------------------------------------------------------------|

E|-18p15----------------15-18p15----------15h18p15----------15---------------|
B|-------16----------16----------16----16----------16----16------------------|
G|----------15----15----------------15----------------15---------------------|
D|-------------17------------------------------------------------------------|
A|---------------------------------------------------------------------------|
D|---------------------------------------------------------------------------|

E|-19p15----------------15-19p15----------15h19p15----------15---------------|
B|-------17----------17----------17----17----------17----17------------------|
G|----------16----16----------------16----------------16---------------------|
D|-------------17------------------------------------------------------------|
A|---------------------------------------------------------------------------|
D|---------------------------------------------------------------------------|

E|-18p15----------------15-18p15---------------------------------------------|
B|-------16----------16----------16---------------16-------------------------|
G|----------15----15----------------15---------15----16----------------------|
D|-------------17----------------------16---16-------------------------------|
A|----------------------------------------18---------------------------------|
D|---------------------------------------------------------------------------|

E|-17b19-/19-19b20r19b20r20--17p14----------------------------14-------------|
B|---------------------------------16p13\10/13\10-------13h16----16p13-------|
G|------------------------------------------------11/14----------------14\11-|
D|---------------------------------------------------------------------------|
A|---------------------------------------------------------------------------|
D|---------------------------------------------------------------------------|

E|---------------------------------------------------------------------------|
B|---------------------------------------------------------------------------|
G|-14p11-14p11---------------------------------------------------------------|
D|-------------13p10--13p10-13p10------------------------7-------------------|
A|--------------------------------12p9--12p9-12p9\6--6-9---9-7-6-7~----------|
D|---------------------------------------------------------------------------|

Guitar 3

E|---------------------------------------------------------------------------|
B|---------------------------------------------------------------------------|
G|---------------------------------------------------------------------------|
D|-2-----2------------1-----1------------2-----2------------1-----1----------|
A|-2-----2------------1-----1------------2-----2------------1-----1----------|
D|-2-2-2-2-2-2-2h5p2--1-1-1-1-1-1-1h4p1--2-2-2-2-2-2-2h5p2--1-1-1-1-1-1-1h4p1|
     . .   . .          . .   . .          . .   . .          . .   . .     

E|---------------------------------------------------------------------------|
B|---------------------------------------------------------------------------|
G|---------------------------------------------------------------------------|
D|-2-----2------------1-----1------------2-----2------------1-----1----------|
A|-2-----2------------1-----1------------2-----2------------1-----1----------|
D|-2-2-2-2-2-2-2h5p2--1-1-1-1-1-1-1h4p1--2-2-2-2-2-2-2h5p2--1-1-1-1-1-1-1h4p1|
     . .   . .          . .   . .          . .   . .          . .   . .     

E|---------------------------------------------------------------------------|
B|---------------------------------------------------------------------------|
G|---------------------------------------------------------------------------|
D|-4--------4--------5------5-4--------4--------5----------------------------|
A|-2--------2--------3------3-2--------2--------3----------------------------|
D|----2-4-5----2-4-5----2-5------2-4-5----2-4-5---2-5-4----------------------|
      . . .    . . .    . .      . . .    . . .   . . .

Chorus 

(6:44)

Guitar 1
   
E|---------------------------------------------------------------------------|
B|---------------------------------------------------------------------------|
G|-/9~-11-12-11p9-10~-12-14-12h14p12-7~-9-10-9p7-8~-9-11---------------------|
D|---------------------------------------------------------------------------|
A|---------------------------------------------------------------------------|
D|---------------------------------------------------------------------------|

E|---------------------------------------------------------------------------|
B|---------------------------------------------------------------------------|
G|-/9~-9-11-12-11h12p11-9-11-12-10~-10-12-14-12h14p12-10-12-10-9-10-9--------|
D|---------------------------------------------------------------------------|
A|---------------------------------------------------------------------------|
D|---------------------------------------------------------------------------|

E|---------------------------------------------------------------------------|
B|---------------------------------------------------------------------------|
G|-7~-9-10-9h10p9-7-9-7-5-7-5-4~---/8~/11~-----------------------------------|
D|---------------------------------------------------------------------------|
A|---------------------------------------------------------------------------|
D|---------------------------------------------------------------------------|

Guitar 1

E|---------------------------------------------------------------------------|
B|-/8~-10-12-10p8-10~-12-13-12h13p12-----------------------------------------|
G|-----------------------------------10~-12-14-12p10-11~-12-14---------------|
D|---------------------------------------------------------------------------|
A|---------------------------------------------------------------------------|
D|---------------------------------------------------------------------------|

E|---------------------------------------------------------------------------|
B|-/8~-8-10-12-10h12p10-8-10-12-10~-10-12-13-12h13p12-10-12-10-8-10-8--------|
G|---------------------------------------------------------------------------|
D|---------------------------------------------------------------------------|
A|---------------------------------------------------------------------------|
D|---------------------------------------------------------------------------|

E|---------------------------------------------------------------------------|
B|-6~-6-8-10-8h10p8-6-8-6-5-6-5-4~---/7~/10~---------------------------------|
G|---------------------------------------------------------------------------|
D|---------------------------------------------------------------------------|
A|---------------------------------------------------------------------------|
D|---------------------------------------------------------------------------|

Guitar 3 – Play this 2 times

E|---------------------------------------------------------------------------|
B|---------------------------------------------------------------------------|
G|---------------------------------------------------------------------------|
D|-2---------------3------------------7-------------4------------------------|
A|-2---------------3------------------5-------------2------------------------|
D|-2---------------3---------------------------------------------------------|

Dual Sweeping 2

(7:12)

Guitar 1 - Play this until the end

E|----------------15----15-19-17h19p17-15------------------------------------|
B|-------17----17----17-------------------17----------17---------------------|
G|----16----16-------------------------------16----16------------------------|
D|-17-------------------------------------------17---------------------------|
A|---------------------------------------------------------------------------|
D|---------------------------------------------------------------------------|

E|----------------17----17-20-19h20p19-17-19-17h19p17-15-17-15---------------|
B|-------18----18----18------------------------------------------------------|
G|----17----17---------------------------------------------------------------|
D|-19------------------------------------------------------------------------|
A|---------------------------------------------------------------------------|
D|---------------------------------------------------------------------------|

E|-13----------------13-15-17-15h17p15-13-15-13h15p13-12-13-12---------------|
B|----15----------15---------------------------------------------------------|
G|-------14----14------------------------------------------------------------|
D|----------15---------------------------------------------------------------|
A|---------------------------------------------------------------------------|
D|---------------------------------------------------------------------------|

E|-11----------------11-14/17p14---------------------------------------------|
B|----12----------12-------------16------------------------------------------|
G|-------11----11-------------------17-14----14-17---------------------------|
D|----------13----------------------------16---------------------------------|
A|---------------------------------------------------------------------------|
D|---------------------------------------------------------------------------|

Guitar 2 - Play this until the end

E|----------------12----12-15-14h15p14-12------------------------------------|
B|-------12----12----12-------------------12----------12---------------------|
G|----12----12-------------------------------12----12------------------------|
D|-14-------------------------------------------14---------------------------|
A|---------------------------------------------------------------------------|
D|---------------------------------------------------------------------------|

E|----------------13----13-17-15h17p15-13-15-13h15p13-12-13-12---------------|
B|-------13----13----13------------------------------------------------------|
G|----14----14---------------------------------------------------------------|
D|-15------------------------------------------------------------------------|
A|---------------------------------------------------------------------------|
D|---------------------------------------------------------------------------|

E|-10----------------10-12-13-12h13p12-10-12-10h12p10-8-10-8-----------------|
B|----10----------10---------------------------------------------------------|
G|-------10----10------------------------------------------------------------|
D|----------12---------------------------------------------------------------|
A|---------------------------------------------------------------------------|
D|---------------------------------------------------------------------------|

E|-7-----------7-11/14p11----------------------------------------------------|
B|---7-------7------------13-------------------------------------------------|
G|-----8---8-----------------14-11----11-14----------------------------------|
D|-------9-------------------------13----------------------------------------|
A|---------------------------------------------------------------------------|
D|---------------------------------------------------------------------------|

Guitar 3 – Play this until the end

E|---------------------------------------------------------------------------|
B|---------------------------------------------------------------------------|
G|---------------------------------------------------------------------------|
D|-2---------------3------------------7-------------4------------------------|
A|-2---------------3------------------5-------------2------------------------|
D|-2---------------3---------------------------------------------------------|

Final Acoustic Guitar

(7:55) The acoustic guitar begins before but it is very difficult to hear

Acoustic Guitar 1 – Repeat 2 times

E|-0-------------0-0-------------------0-0-----0-------0---------2-----------|
B|-0---0-------0---1-----1---0-----------3---3---3-------3-----4---4---------|
G|-0-0---0---0-----2---2---2---2-----2---2-2-------2-------2---4-----4-------|
D|-2-------2-------3-3-----------3-3-----0-----------0-------0-4-------4-----|
A|-2---------------3---------------------------------------------------------|
E|-0-------------------------------------------------------------------------|

E|-2-------------------------------------------------------------------------|
B|---4-----------------------------------------------------------------------|
G|-----4---------------------------------------------------------------------|
D|-------4-------------------------------------------------------------------|
A|---------------------------------------------------------------------------|
E|---------------------------------------------------------------------------|

(8:25)

E|-0-------------------------------------------------------------------------|
B|-0-------------------------------------------------------------------------|
G|-0-------------------------------------------------------------------------|
D|-2-------------------------------------------------------------------------|
A|-2-------------------------------------------------------------------------|
E|-0-------------------------------------------------------------------------|

Acoustic Guitar 2

E|-7-----7------7-------8--10-8h10p8-13-13----------13-------11--------------|
B|-8-------8------8-----10-----------15----17-15-------15----12--------------|
G|-9---9-----9------9---10-----------14----------14-------14-11--------------|
D|-9-9---------9------9-10---------------------------------------------------|
A|-7-------------------------------------------------------------------------|
E|---------------------------------------------------------------------------|

E|-11p8----11----------------------------------------------------------------|
B|------10----10----10-------------12--12-12--12-12-12--13-15-13h15p13-------|
G|---------------11----11-8---8h11-12--12-12--12-12-12--14-------------------|
D|--------------------------9------------------------------------------------|
A|---------------------------------------------------------------------------|
E|---------------------------------------------------------------------------|

                                         N.H. . . 
E|-------12-13----------11--14-----12-----------5----------------------------|
B|-13-15----15-17-15----12---------12---------5------------------------------|
G|----------14-------14-11---------12-------5--------------------------------|
D|---------------------------------14----------------------------------------|
A|---------------------------------------------------------------------------|
E|---------------------------------------------------------------------------|

************************************

| h    Hammer-on
| p    Pull-off
| ^^   Whammy Bar
| ~    Vibrato
| b    Bend
| /    Slide up
| \    Slide down
| PM . Palm Mute
| H.N. Natural Harmonic
| *    Pinch Harmonic
| t    Tapping

************************************

Please Hate and Enjoy!
Suggest correction
comments
print report bad tab
4 comments total. Showing first comments.
0 reply
palo.allen 10 Nov 08, 2016 06:25 PM

AWESOME DUDE

0 reply
bruno997 35 Nov 09, 2016 12:35 AM

Thank you guy!

0 reply
jwise683 13 Nov 10, 2016 04:37 AM

Thanks for the complete tab bro

guest
You may want to rate the tab now too:
select rating
Wanna post a correction for this tab? Suggest correction