Oops, an error
Loading. Please wait.

Thick And Thin Tab

version 3
version 3

Whole song

Interactive

205 views 1 this week
no commentswrite comment
1 2 3 4 5
2 more votes to show rating
add to favorites
launch autoscroll
font size
0
reset
how to read this tab
guitar tuner
Autoscroll
slow
fast
+/-
esc
set tempo
stop
Help us to improve Ultimate-Guitar.com Take our survey!
×
Author
Difficulty
Tuning
intermediate
D A D G B E
Band: Avenged Sevenfold
Song: Thick and Thin
Tuning: Drop D
Tabbed by: Peryitex

[Intro]

e|---------------------------------------------------------------------------|
B|---------------------------------------------------------------------------|
G|---------------------------------------------------------------------------|
D|-0--------------------------------0----------------------------------------| 2x
A|-0------------------------------0-0----------------------------------------|
D|-0------------------------------0-0----------------------------------------|

                                  PM

e|-------------------------|
B|-------------------------|
G|-------------------------|
D|-1---0-------3---5-------|
A|-1---0-------3---5-------|
D|-1---0-------3---5-------|

e|-----------------|
B|-----------------|
G|-----------------|
D|-0-0---0-0-0---0-| 3x
A|-0-0---0-0-0---0-|
D|-0-0---0-0-0---0-|

e|-----------------|
B|-----------------|
G|-----------------|
D|-0---------------| 
A|-0---------------|
D|-0---------------|

[Verse 1]

e|-----------------|-----------------|-----------------|-----------------|
B|-----------------|-----------------|-----------------|-----------------|
G|-----------------|-----------------|-----------------|-----------------|
D|-0-0---0-0-0---0-|-0-0---0-0-0---0-|-3-3---3-3-3---3-|-3-3---3-3-3---3-|
A|-0-0---0-0-0---0-|-0-0---0-0-0---0-|-3-3---3-3-3---3-|-3-3---3-3-3---3-|
D|-0-0---0-0-0---0-|-0-0---0-0-0---0-|-3-3---3-3-3---3-|-3-3---3-3-3---3-|

e|-----------------|-----------------|-----------------|-----------------|
B|-----------------|-----------------|-----------------|-----------------|
G|-5-5---5-5-5---5-|-5-5---5-5-5---5-|-3-3---3-3-3---3-|-2-2---2---------|
D|-5-5---5-5-5---5-|-5-5---5-5-5---5-|-3-3---3-3-3---3-|-2-2---2-3-3-2-2-|
A|-3-3---3-3-3---3-|-3-3---3-3-3---3-|-1-1---1-1-1---1-|-0-0---0-3-3-2-2-|
D|-----------------|-----------------|-----------------|---------3-3-2-2-|

e|-----------------|-----------------|-----------------|-----------------|
B|-----------------|-----------------|-----------------|-----------------|
G|-----------------|-----------------|-----------------|-----------------|
D|-0-0---0-0-0---0-|-0-0---0-0-0---0-|-3-3---3-3-3---3-|-3-3---3-3-3---3-|
A|-0-0---0-0-0---0-|-0-0---0-0-0---0-|-3-3---3-3-3---3-|-3-3---3-3-3---3-|
D|-0-0---0-0-0---0-|-0-0---0-0-0---0-|-3-3---3-3-3---3-|-3-3---3-3-3---3-|

e|-----------------|-----------------|-----------------|------------------|
B|-----------------|-----------------|-----------------|------------------|
G|-5-5---5-5-5---5-|-5-5---5-5-5---5-|-3-3---3-3-3---3-|-2----------------|
D|-5-5---5-5-5---5-|-5-5---5-5-5---5-|-3-3---3-3-3---3-|-2--5--3--5--3--2-|
A|-3-3---3-3-3---3-|-3-3---3-3-3---3-|-1-1---1-1-1---1-|-0--5--3--5--3--2-|
D|-----------------|-----------------|-----------------|----5--3--5--3--2-|

                                                         PM--------------|

[Bridge 1]

e|-------------------------|-------------------------|-------------------------|
B|-------------------------|-------------------------|-------------------------|
G|-------------------------|-------------------------|-------------------------|
D|-1-0-----1-0-------------|-1-0-----1-0-------------|-1-0-----1-0-------------|
A|-1-0-----1-0-----0-0-0-0-|-1-0-----1-0-----0-0-0-0-|-1-0-----1-0-----0-0-0-0-|
D|-1-0-----1-0-----0-0-0-0-|-1-0-----1-0-----0-0-0-0-|-1-0-----1-0-----0-0-0-0-|

                   PM-----|                  PM-----|                  PM-----|       4x 

e|-------------------|
B|-------------------|
G|-------------------|
D|-------------------|
A|-3--1--0--1--0-----|
D|----------------3--|

   p.h----------|

[Verse 2]

e|-----------------------------|-----------------------------|
B|-----------------------------|-----------------------------|
G|-----------------------------|-5---------7---------5-/-7---|
D|-0-----0-------------0-------|-x---------x---------x-/-x---|
A|-0-----0-----0---0---0---0---|-3-----3---5-----5---3-/-5---|
D|-0-----0-----0---0---0---0---|-----------------------------|

              PM-----|    |-|         |-|       |-|

e|-----------------------------|-----------------------------|
B|-----------------------------|-----------------------------|
G|-----------------------------|---------------------5-/-7---|
D|-3-----3-------------3---3---|-5---------3---------x-/-x---|
A|-3-----3-----3-3-3-3-3---3---|-5-----5---3-----3---3-/-5---|
D|-3-----3-----3-3-3-3-3---3---|-5-----5---3-----3-----------|

              PM-----|                |-|       |-|

e|-----------------------------|-----------------------------|
B|-----------------------------|-----------------------------|
G|-----------------------------|-5---------7---------5-/-7---|
D|-0-----0-------------0-------|-x---------x---------x-/-x---|
A|-0-----0-----0-0-0-0-0---0---|-3-----3---5-----5---3-/-5---|
D|-0-----0-----0-0-0-0-0---0---|-----------------------------|

              PM-----|    |-|         |-|       |-|

e|-----------------------------|-----------------------------|
B|-----------------------------|-----------------------------|
G|-----------------------------|-----------------------------|
D|-3-----3-------------3-------|-5---------3---------2-h-3---|
A|-3-----3-----3---3---3---3---|-5-----5---3-----3---2-h-3---|
D|-3-----3-----3---3---3---3---|-5-----5---3-----3---2-h-3---|

              PM-----|    |-|         |-|       |-|

e|-----------------------------|-----------------------------|
B|-----------------------------|-----------------------------|
G|-----------------------------|-5---------7---------5-/-7---|
D|-0-----0-------------0-------|-x---------x---------x-/-x---|
A|-0-----0-----0-0-0-0-0---0---|-3-----3---5-----5---3-/-5---|
D|-0-----0-----0-0-0-0-0---0---|-----------------------------|

              PM-----|    |-|         |-|       |-|

e|-----------------------------|-----------------------------|
B|-----------------------------|-----------------------------|
G|-----------------------------|---------------------5-/-7---|
D|-3-----3-------------3-------|-5---------3---------x-/-x---|
A|-3-----3-----3---3---3---3---|-5-----5---3-----3---3-/-5---|
D|-3-----3-----3---3---3---3---|-5-----5---3-----3-----------|

              PM-----|    |-|         |-|       |-|

e|-----------------------------|-----------------------------|
B|-----------------------------|-----------------------------|
G|-----------------------------|-5---------7---------5-/-7---|
D|-0-----0-------------0-------|-x---------x---------x-/-x---|
A|-0-----0-----0-0-0-0-0---0---|-3-----3---5-----5---3-/-5---|
D|-0-----0-----0-0-0-0-0---0---|-----------------------------|

              PM-----|    |-|         |-|       |-|

e|-----------------------------|-----------------------------|
B|-----------------------------|-----------------------------|
G|-----------------------------|-----------------------------|
D|-3-----3-------------3-------|-5---------3---------2-h-3---|
A|-3-----3-----3---3---3---3---|-5-----5---3-----3---2-h-3---|
D|-3-----3-----3---3---3---3---|-5-----5---3-----3---2-h-3---|

              PM-----|    |-|         |-|       |-|

e|-----|
B|-----|
G|-----|
D|-0---|
A|-0---|
D|-0---|

[Bridge 2]

e|---------------------------------|---------------------------------|
B|---------------------------------|---------------------------------|
G|---------------------------------|---------------------------------|
D|-0---3---2---0---3---0---6---7---|-5---8---7---5---3---2---3---0---|  2x
A|-0---3---2---0---3---0---6---7---|-5---8---7---5---3---2---3---0---|
D|-0---3---2---0---3---0---6---7---|-5---8---7---5---3---2---3---0---|

[Verse 2]

e|-----------------------------|-----------------------------|
B|-----------------------------|-----------------------------|
G|-----------------------------|-5---------7---------5-/-7---|
D|-0-----0-------------0-------|-x---------x---------x-/-x---|
A|-0-----0-----0-0-0-0-0---0---|-3-----3---5-----5---3-/-5---|
D|-0-----0-----0-0-0-0-0---0---|-----------------------------|

              PM-----|    |-|         |-|       |-|

e|-----------------------------|-----------------------------|
B|-----------------------------|-----------------------------|
G|-----------------------------|---------------------5-/-7---|
D|-3-----3-------------3-------|-5---------3---------x-/-x---|
A|-3-----3-----3---3---3---3---|-5-----5---3-----3---3-/-5---|
D|-3-----3-----3---3---3---3---|-5-----5---3-----3-----------|

              PM-----|    |-|         |-|       |-|                         2x

e|-----------------------------|-----------------------------|
B|-----------------------------|-----------------------------|
G|-----------------------------|-5---------7---------5-/-7---|
D|-0-----0-------------0-------|-x---------x---------x-/-x---|
A|-0-----0-----0-0-0-0-0---0---|-3-----3---5-----5---3-/-5---|
D|-0-----0-----0-0-0-0-0---0---|-----------------------------|

              PM-----|    |-|         |-|       |-|

e|-----------------------------|-----------------------------|
B|-----------------------------|-----------------------------|
G|-----------------------------|-----------------------------|
D|-3-----3-------------3-------|-5---------3---------2-h-3---|
A|-3-----3-----3---3---3---3---|-5-----5---3-----3---2-h-3---|
D|-3-----3-----3---3---3---3---|-5-----5---3-----3---2-h-3---|

              PM-----|    |-|         |-|       |-|


[Bridge 2]

e|---------------------------------|---------------------------------|
B|---------------------------------|---------------------------------|
G|---------------------------------|---------------------------------|
D|-0---3---2---0---3---0---6---7---|-5---8---7---5---3---2---3---0---|  2x
A|-0---3---2---0---3---0---6---7---|-5---8---7---5---3---2---3---0---|
D|-0---3---2---0---3---0---6---7---|-5---8---7---5---3---2---3---0---|

[Bridge 3]

Use very light palm muting.

e|-------------------------|---------------------------------|
B|-------------------------|---------------------------------|
G|-------------------------|---------------------------------|
D|-8\7---8\7---8\7---8\7---|---------3---5-----------3---5---| 2x
A|-8\7---8\7---8\7---8\7---|--(0)----3---5----(0)----3---5---|
D|-8\7---8\7---8\7---8\7---|-1p0-----3---5---1p0-----3---5---|

  PM--------------------|

e|---------------------------------|
B|---------------------------------|
G|---------------------------------|
D|-3-------------------5-----6-----|
A|-3----------0--2--3--5-----6-----|
D|-3----------0--2--3--5-----6-----|

             PM------|

[Bridge 4]

e|---------------------------------|---------------------------------|
B|---------------------------------|---------------------------------|
G|---------------------------------|---------------------------------|
D|-0-0-0-------0---0---0---3---5---|-0-0-0-------0---0---0-------3---|  4x
A|-0-0-0-------0---0---0---3---5---|-0-0-0-------0---0---0---6-5-3---|
D|-0-0-0-------0---0---0---3---5---|-0-0-0-------0---0---0---6-5-3---|

                                                             PM-|

e|---------------------------------|
B|---------------------------------|
G|---------------------------------|
D|-3-------------------5-----6-----|
A|-3----------0--2--3--5-----6-----|
D|-3----------0--2--3--5-----6-----|

             PM------|

[Verse 3]

e|---------------------------------|---------------------------------|
B|---------------------------------|---------------------------------|
G|---------------------------------|---------------------------------|
D|-0-0-0-------0---0---0---3---5---|-0-0-0-------0---0---0---6-5-3---|  4x
A|-0-0-0-------0---0---0---3---5---|-0-0-0-------0---0---0---6-5-3---|
D|-0-0-0-------0---0---0---3---5---|-0-0-0-------0---0---0---6-5-3---|

e|---------------------------------|
B|---------------------------------|
G|---------------------------------|
D|-3-------------------5-----6-----|
A|-3----------0--2--3--5-----6-----|
D|-3----------0--2--3--5-----6-----|

             PM------|

[Break]

e|-------------------------|-------------------|
B|-------------------------|-------------------|
G|-7-----------7-----7--7\-|-------------------|
D|-7-----------7-----7--7\-|-1--0-----3--5-----|
A|-5---5-5-5-5-5-5-5-5--5\-|-1--0-----3--5-----|
D|-------------------------|-1--0-----3--5-----|

       PM-----|  PM-|                                                            

e|-------------------------|-------------------|
B|-------------------------|-------------------|
G|-7-----------7-----7--7\-|-------------------|
D|-7-----------7-----7--7\-|-7--5--3--5--3--2--|
A|-5---5-5-5-5-5-5-5-5--5\-|-7--5--3--5--3--2--|
D|-------------------------|-7--5--3--5--3--2--|

       PM-----|  PM-|        PM--------------|

[Verse 1]

e|-----------------|-----------------|-----------------|-----------------|
B|-----------------|-----------------|-----------------|-----------------|
G|-----------------|-----------------|-----------------|-----------------|
D|-0-0---0-0-0---0-|-0-0---0-0-0---0-|-3-3---3-3-3---3-|-3-3---3-3-3---3-|
A|-0-0---0-0-0---0-|-0-0---0-0-0---0-|-3-3---3-3-3---3-|-3-3---3-3-3---3-|
D|-0-0---0-0-0---0-|-0-0---0-0-0---0-|-3-3---3-3-3---3-|-3-3---3-3-3---3-|

e|-----------------|-----------------|-----------------|-----------------|
B|-----------------|-----------------|-----------------|-----------------|
G|-5-5---5-5-5---5-|-5-5---5-5-5---5-|-3-3---3-3-3---3-|-2-2---2---------|
D|-5-5---5-5-5---5-|-5-5---5-5-5---5-|-3-3---3-3-3---3-|-2-2---2-3-3-2-2-|
A|-3-3---3-3-3---3-|-3-3---3-3-3---3-|-1-1---1-1-1---1-|-0-0---0-3-3-2-2-|
D|-----------------|-----------------|-----------------|---------3-3-2-2-|

e|-----------------|-----------------|-----------------|-----------------|
B|-----------------|-----------------|-----------------|-----------------|
G|-----------------|-----------------|-----------------|-----------------|
D|-0-0---0-0-0---0-|-0-0---0-0-0---0-|-3-3---3-3-3---3-|-3-3---3-3-3---3-|
A|-0-0---0-0-0---0-|-0-0---0-0-0---0-|-3-3---3-3-3---3-|-3-3---3-3-3---3-|
D|-0-0---0-0-0---0-|-0-0---0-0-0---0-|-3-3---3-3-3---3-|-3-3---3-3-3---3-|

e|-----------------|-----------------|-----------------|------------------|
B|-----------------|-----------------|-----------------|------------------|
G|-5-5---5-5-5---5-|-5-5---5-5-5---5-|-3-3---3-3-3---3-|-2----------------|
D|-5-5---5-5-5---5-|-5-5---5-5-5---5-|-3-3---3-3-3---3-|-2--5--3--5--3--2-|
A|-3-3---3-3-3---3-|-3-3---3-3-3---3-|-1-1---1-1-1---1-|-0--5--3--5--3--2-|
D|-----------------|-----------------|-----------------|----5--3--5--3--2-|

                                                         PM--------------|

[Bridge 1/Outro]

e|-------------------------|-------------------------|-------------------------|
B|-------------------------|-------------------------|-------------------------|
G|-------------------------|-------------------------|-------------------------|
D|-1-0-----1-0-------------|-1-0-----1-0-------------|-1-0-----1-0-------------|
A|-1-0-----1-0-----0-0-0-0-|-1-0-----1-0-----0-0-0-0-|-1-0-----1-0-----0-0-0-0-|
D|-1-0-----1-0-----0-0-0-0-|-1-0-----1-0-----0-0-0-0-|-1-0-----1-0-----0-0-0-0-|

                   PM-----|                  PM-----|                  PM-----|       4x 

e|-------------------|
B|-------------------|
G|-------------------|
D|-------------------|
A|-3--1--0--1--0-----|
D|----------------3--|

   p.h----------|

e|-------------------|
B|-------------------|
G|-2-----------------|
D|-0-----------------|
A|-0-----------------|
D|-0-----------------|

************************************

|(n)  Ghost note
| h   Hammer-on
| p   Pull-off
| /   Slide up
| \   Slide down
| PM  Palm mute
| p.h Pinch Harmonic

************************************
Suggest correction
Give kudos to tab author, rate the tab!
1 2 3 4 5
comments
print report bad tab
guest
You may want to rate the tab now too:
select rating
Wanna post a correction for this tab? Suggest correction