Oops, an error
Loading. Please wait.

This Means War bass

version 1
version 1

Whole song

Interactive

13,824 views 18 this week
2 commentsread comments
1 2 3 4 5
x 7
add to favorites
×
Save as Personal and add changes to this tab that will be seen only by you. Learn more ›
×
You can save this tab as Personal to edit and correct it or add notes. All changes will be seen only by you. Learn more »
launch autoscroll
font size
0
reset
guitar tuner
edit
Autoscroll
slow
fast
+/-
esc
set tempo
stop
-----------------------------------------------------------------------------
                             This Mean War - Avenged Sevenfold
-----------------------------------------------------------------------------
Tabbed by: Andu Needle
E-mail: sulfur_in_my_lungs@yahoo.com

Intro 1:

G|-----------------------------------------------------------------|
D|-----------------------------------------------------------------|
A|---------------3~------------------------------------------------|
D|-5~--55555--1~----87--5~--55555--1~-3~-333333333-----------------|

Intro 2:

G|-----------------------------------------------------------------|
D|-----------------------5-----------------------------------------|
A|---8-6h8-65----8-6h8-5---5---------------------------------------|
D|-0----------x0---------------------------------------------------|

G|-----------------------------------------------------------------|
D|-----------------------------------------------------------------|
A|---88-6h8-65-3---5---6-------------------------------------------|
D|-0-------------0---0---11-13-------------------------------------|

You play twice the last two parts from the intro. And after the second one, before the 
verse there is a note: 1~

Verse:

G|-----------------------------------------------------------------|
D|---------------------------------------------------5-------------|
A|-----------------8-6h8-65------------------8-6h8-5---5-----------|
D|-0-000-000--0-00-----------0-000-000--0-00-----------------------|(x2)

Chorus:

G|-----------------------------------------------------------------|
D|-----------------------------------------------------------------|
A|-----------------------------------------------------------------|
D|-1-1111-11--5-5555-55--0-0000-00--5~-78--------------------------|

G|-----------------------------------------------------------------|
D|-----------------------------------------------------------------|
A|----------------------------------------------------3-1-0--------|
D|-1-1111-11--5-5555-55--0-0000-00--1-31-5-5-5-78-1-1--------------|

Intro 2 riff again.
Verse 2 is the same like the first one!
Chorus 2 is the same like the first one!

Solo:

G|-----------------------------------------------------------------|
D|-----------------------------------------------------------------|
A|-----------------------------------3---5---6---------------------|
D|-0~-00-003~--0~-00-001--0~-00-003~---0---0---11-13---------------|(x2)

G|-----------------------------------------------------------------|
D|-----------------------------------------------------------------|
A|-----------------------------------------------------------------|
D|-1-1111-11--5-5555-55--0-0000-00--5~-78--------------------------|

G|-----------------------------------------------------------------|
D|-----------------------------------------------------------------|
A|-----------------------------------------------------------------|
D|-1-1111-11--5-5555-55--0-0000-00--1-31-5~------------------------|

Bridge:

G|-----------------------------------------------------------------|
D|-----------------------------------------------------------------|
A|----------3~-10--------------------------------------------------|
D|-55555-1~-------5~-----------------------------------------------|

G|-----------------------------------------------------------------|
D|-----------------------------------------------------------------|
A|-----------------------------------------------------------------|
D|-55555-1~-3~-33333333(x2)----------------------------------------|

Verse 3 is like the others!
Chorus 3 is like the others!

Ending:

G|-----------------------------------------------------------------|
D|-----------------------5-----------------------------------------|
A|---8-6h8-65----8-6h8-5---5---------------------------------------|
D|-0----------x0---------------------------------------------------|

G|-----------------------------------------------------------------|
D|-----------------------------------------------------------------|
A|---88-6h8-65-3---5---6-------------------------------------------|
D|-0-------------0---0---11-13-------------------------------------|

You play these two parts twice!

Ending:

G|-----------------------------------------------------------------|
D|-----------------------------------------------------------------|
A|-----------------------------------------------------------------|
D|-1~--3-1-0-------------------------------------------------------|

I know I may not tabbed it right. The thing is you have to listen to the rhythm and my
tab will be much more helpful.

Note: "10" it is 1 and 0. "13" it is 1 and 3.
Suggest correction
Creating personal tab
Creating personal tab
You can edit any tab online and save it as your Personal.

You can edit, replace or remove any tab part or add personal notes – all changes will be seen only by you.

Personal tabs can be accessed anytime from any device, even offline.
Learn more »
comments
print report bad tab
2 comments total.
0 reply
raluzzzi 10 Aug 24, 2013 06:59 AM

Awesome! :X

0 reply
jordon.chamberl 66 Aug 28, 2013 10:55 AM

check out
http://tabs.ultimate-guitar.com/tabs/a/avenged_sevenfold/this_means_war_tab.htm
and use that as a basis

guest
You may want to rate the tab now too:
select rating
Wanna post a correction for this tab? Suggest correction