Oops, an error
Loading. Please wait.

This Means War bass

version 2
version 2

Whole song

Interactive

2,691 views 6 this week
no commentswrite comment
1 2 3 4 5
x 5
add to favorites
×
Save as Personal and add changes to this tab that will be seen only by you. Learn more ›
×
You can save this tab as Personal to edit and correct it or add notes. All changes will be seen only by you. Learn more »
launch autoscroll
font size
0
reset
guitar tuner
edit
Autoscroll
slow
fast
+/-
esc
set tempo
stop

G|-----------------------------------------------------------------|
D|-----------------------------------------------------------------|
A|-------------------------------------------------3-----------1-0-|
D|-5-------5-5-5-5-5---------------1-------------------------------|
   1 + 2 + 3 + 4 + 1 + 2 + 3 + 4 + 1 + 2 + 3 + 4 + 1 + 2 + 3 + 4 +

G|-----------------------------------------------------------------|
D|-----------------------------------------------------------------|
A|-----------------------------------------------------------------|
D|-5-------5-5-5-5-5---------------1---------------3---------------|
   1 + 2 + 3 + 4 + 1 + 2 + 3 + 4 + 1 + 2 + 3 + 4 + 1 + 2 + 3 + 4 +

Slowing down
G|---------------------------------|
D|---------------------------------|
A|---------------------------------|
D|-3-3-3-3-3-3-3-3-3---------------|
   1 + 2 + 3 + 4 + 1 + 2 + 3 + 4 +

Rest

Main Riff 0:33
G|----------------------------------------------------------------------|
D|o-------------------------------------------------------------5-------|
A|o-------------8-8-6h8p6-5---5-------------------8-8-6h8p6-5-----5-----|
D|--0-------------------------------x-0---------------------------------|
    1 e + a 2 e + a 3  e  + a 4 e + a 1 e + a 2 e + a 3  e  + a 4 e + a

G|--------------------------------------------------------------------|
D|-------------------------------------------------------------------o|
A|-------------8-8-6h8p6-5---5-------3-----5-----6-------------------o|
D|-0-------------------------------------0-----0-----1---1---1-3-3----|
   1 e + a 2 e + a 3  e  + a 4 e + a 1 e + a 2 e + a 3 e + a 4 e + a

G|---------------------------------|
D|---------------------------------|
A|---------------------------------|
D|-1-------------------------------|
   1 + 2 + 3 + 4 + 1 + 2 + 3 + 4 +

Verse 0:57
G|-------------------------------------------------------------------|
D|-------------------------------------------------------------------|
A|---------------------------------------------8-8-6h8p6-5---5-------|
D|-0-------0-0-0-------0-0-0-------0-------0-0-----------------------|
   1 e + a 2 e + a 3 e + a 4 e + a 1 e + a 2 e + a 3  e  + a 4 e + a

G|-------------------------------------------------------------------|
D|-----------------------------------------------------------5-------|
A|---------------------------------------------8-8-6h8p6-5-----5-----|
D|-0-------0-0-0-------0-0-0-------0-------0-0-----------------------|
   1 e + a 2 e + a 3 e + a 4 e + a 1 e + a 2 e + a 3  e  + a 4 e + a

G|-------------------------------------------------------------------|
D|-------------------------------------------------------------------|
A|---------------------------------------------8-8-6h8p6-5---5-------|
D|-0-0-0---0-0-0-------0-0-0-------0-------0-0-----------------------|
   1 e + a 2 e + a 3 e + a 4 e + a 1 e + a 2 e + a 3  e  + a 4 e + a

G|-------------------------------------------------------------------|
D|-----------------------------------------------------------5-------|
A|---------------------------------------------8-8-6h8p6-5-----5-----|
D|-0-------0-0-0-------0-0-0-------0-------0-0-----------------------|
   1 e + a 2 e + a 3 e + a 4 e + a 1 e + a 2 e + a 3  e  + a 4 e + a

Chorus 1:18
G|-----------------------------------------------------------------|
D|-----------------------------------------------------------------|
A|-----------------------------------------------------------------|
D|-1-------1-1-1-1---------1-1-----5-------5-5-5-5---------5-5-----|
   1 e + a 2 e + a 3 e + a 4 e + a 1 e + a 2 e + a 3 e + a 4 e + a

G|-----------------------------------------------------------------|
D|-----------------------------------------------------------------|
A|-------------------------------------------------0-------1-------|
D|-0-------0-0-0-0---------0-0-----5-------------------------------|
   1 e + a 2 e + a 3 e + a 4 e + a 1 e + a 2 e + a 3 e + a 4 e + a

G|-----------------------------------------------------------------|
D|-----------------------------------------------------------------|
A|-----------------------------------------------------------------|
D|-1-------1-1-1-1---------1-1-----5-------5-5-5-5---------5-5-----|
   1 e + a 2 e + a 3 e + a 4 e + a 1 e + a 2 e + a 3 e + a 4 e + a

G|-----------------------------------------------------------------|
D|-----------------------------------------------------------------|
A|-----------------------------------------------------------------|
D|-0-------0-0-0-0---------0-0-----1---------------3-------1-------|
   1 e + a 2 e + a 3 e + a 4 e + a 1 e + a 2 e + a 3 e + a 4 e + a

G|-----------------------------------------------------------------|
D|-----------------------------------------------------------------|
A|-------------------------0---1-0-----------------3-------1---0---|
D|-5-------------------------------1-------------------------------|
   1 + 2 + 3 + 4 + 1 + 2 + 3 + 4 + 1 + 2 + 3 + 4 + 1 + 2 + 3 + 4 +

Interlude 1:50
G|----------------------------------------------------------------------|
D|o-------------------------------------------------------------5-------|
A|o-------------8-8-6h8p6-5---5-------------------8-8-6h8p6-5-----5-----|
D|--0-------------------------------x-0---------------------------------|
    1 e + a 2 e + a 3  e  + a 4 e + a 1 e + a 2 e + a 3  e  + a 4 e + a

G|--------------------------------------------------------------------|
D|-------------------------------------------------------------------o|
A|-------------8-8-6h8p6-5---5-------3-----5-----6-------------------o|
D|-0-------------------------------------0-----0-----1---1---1-3-3----|
   1 e + a 2 e + a 3  e  + a 4 e + a 1 e + a 2 e + a 3 e + a 4 e + a

G|---------------------------------|
D|---------------------------------|
A|---------------------------------|
D|-1-------------------------------|
   1 + 2 + 3 + 4 + 1 + 2 + 3 + 4 +

Verse 2:14
G|-------------------------------------------------------------------|
D|-------------------------------------------------------------------|
A|---------------------------------------------8-8-6h8p6-5---5-------|
D|-0-------0-0-0-------0-0-0-------0-------0-0-----------------------|
   1 e + a 2 e + a 3 e + a 4 e + a 1 e + a 2 e + a 3  e  + a 4 e + a

G|-------------------------------------------------------------------|
D|-----------------------------------------------------------5-------|
A|---------------------------------------------8-8-6h8p6-5-----5-----|
D|-0-------0-0-0-------0-0-0-------0-------0-0-----------------------|
   1 e + a 2 e + a 3 e + a 4 e + a 1 e + a 2 e + a 3  e  + a 4 e + a

G|-------------------------------------------------------------------|
D|-------------------------------------------------------------------|
A|---------------------------------------------8-8-6h8p6-5---5-------|
D|-0-0-0---0-0-0-------0-0-0-------0-------0-0-----------------------|
   1 e + a 2 e + a 3 e + a 4 e + a 1 e + a 2 e + a 3  e  + a 4 e + a

G|-------------------------------------------------------------------|
D|-----------------------------------------------------------5-------|
A|---------------------------------------------8-8-6h8p6-5-----5-----|
D|-0-------0-0-0-------0-0-0-------0-------0-0-----------------------|
   1 e + a 2 e + a 3 e + a 4 e + a 1 e + a 2 e + a 3  e  + a 4 e + a

Chorus 2:35
G|-----------------------------------------------------------------|
D|-----------------------------------------------------------------|
A|-----------------------------------------------------------------|
D|-1-------1-1-1-1---------1-1-----5-------5-5-5-5---------5-5-----|
   1 e + a 2 e + a 3 e + a 4 e + a 1 e + a 2 e + a 3 e + a 4 e + a

G|-----------------------------------------------------------------|
D|-----------------------------------------------------------------|
A|-------------------------------------------------0-------1-------|
D|-0-------0-0-0-0---------0-0-----5-------------------------------|
   1 e + a 2 e + a 3 e + a 4 e + a 1 e + a 2 e + a 3 e + a 4 e + a

G|-----------------------------------------------------------------|
D|-----------------------------------------------------------------|
A|-----------------------------------------------------------------|
D|-1-------1-1-1-1---------1-1-----5-------5-5-5-5---------5-5-----|
   1 e + a 2 e + a 3 e + a 4 e + a 1 e + a 2 e + a 3 e + a 4 e + a

G|-----------------------------------------------------------------|
D|-----------------------------------------------------------------|
A|-----------------------------------------------------------------|
D|-0-------0-0-0-0---------0-0-----1---------------3-------1-------|
   1 e + a 2 e + a 3 e + a 4 e + a 1 e + a 2 e + a 3 e + a 4 e + a

G|-----------------------------------------------------------------|
D|-----------------------------------------------------------------|
A|-------------------------0---1-0-----------------3-------1---0---|
D|-5---5---5---5---5---------------1---1---1---1-------------------|
   1 + 2 + 3 + 4 + 1 + 2 + 3 + 4 + 1 + 2 + 3 + 4 + 1 + 2 + 3 + 4 +

G|-----------------------------------------------------------------|
D|-----------------------------------------------------------------|
A|-------------------------0-0-1-0-----------------3-------1---0---|
D|-5---5---5---5---5---5-----------1---1---1---1-1-----------------|
   1 + 2 + 3 + 4 + 1 + 2 + 3 + 4 + 1 + 2 + 3 + 4 + 1 + 2 + 3 + 4 +

Solo 3:18
G|-----------------------------------------------------------------|
D|-----------------------------------------------------------------|
A|-----------------------------------------------------------------|
D|-0-----------0-0---0-0---3-------0-----------0-0---0-0---1-------|
   1 e + a 2 e + a 3 e + a 4 e + a 1 e + a 2 e + a 3 e + a 4 e + a

G|-----------------------------------------------------------------|
D|-----------------------------------------------------------------|
A|---------------------------------3-----5-----6-------------------|
D|-0-----------0-0---0-0---3-----------0-----0-----1---1---1-3-3-3-|
   1 e + a 2 e + a 3 e + a 4 e + a 1 e + a 2 e + a 3 e + a 4 e + a

G|-----------------------------------------------------------------|
D|-----------------------------------------------------------------|
A|-----------------------------------------------------------------|
D|-0-----------0-0---0-0---3-3-3-3-0-----------0-0---0-0---1-1-1-1-|
   1 e + a 2 e + a 3 e + a 4 e + a 1 e + a 2 e + a 3 e + a 4 e + a

G|-----------------------------------------------------------------|
D|-----------------------------------------------------------------|
A|---------------------------------3-----5-----6-------------------|
D|-0-0-0-------0-0---0-0---3-----------0-----0-----1---1---1-3-3-3-|
   1 e + a 2 e + a 3 e + a 4 e + a 1 e + a 2 e + a 3 e + a 4 e + a

3:39
G|-----------------------------------------------------------------|
D|-----------------------------------------------------------------|
A|-----------------------------------------------------------------|
D|-1-------1-1-1-1---------1-1-----5-------5-5-5-5---------5-5-----|
   1 e + a 2 e + a 3 e + a 4 e + a 1 e + a 2 e + a 3 e + a 4 e + a

G|-----------------------------------------------------------------|
D|-----------------------------------------------------------------|
A|-------------------------------------------------0-------1-------|
D|-0-------0-0-0-0---------0-0-----5-------------------------------|
   1 e + a 2 e + a 3 e + a 4 e + a 1 e + a 2 e + a 3 e + a 4 e + a

G|-----------------------------------------------------------------|
D|-----------------------------------------------------------------|
A|-----------------------------------------------------------------|
D|-1-------1-1-1-1---------1-1-----5-------5-5-5-5---------5-5-----|
   1 e + a 2 e + a 3 e + a 4 e + a 1 e + a 2 e + a 3 e + a 4 e + a

G|-----------------------------------------------------------------|
D|-----------------------------------------------------------------|
A|-----------------------------------------------------------------|
D|-0-------0-0-0-0---------0-0-----1---------------3-------1-------|
   1 e + a 2 e + a 3 e + a 4 e + a 1 e + a 2 e + a 3 e + a 4 e + a

Bridge 4:01
G|-----------------------------------------------------------------|
D|-----------------------------------------------------------------|
A|-------------------------------------------------3-----------1-0-|
D|-5-------5-5-5-5-5---------------1-------------------------------|
   1 + 2 + 3 + 4 + 1 + 2 + 3 + 4 + 1 + 2 + 3 + 4 + 1 + 2 + 3 + 4 +

G|-----------------------------------------------------------------|
D|-----------------------------------------------------------------|
A|-----------------------------------------------------------------|
D|-5-------5-5-5-5-5-----------5-\-1---------------3---------------|
   1 + 2 + 3 + 4 + 1 + 2 + 3 + 4 + 1 + 2 + 3 + 4 + 1 + 2 + 3 + 4 +

G|---------------------------------|
D|---------------------------------|
A|---------------------------------|
D|-3-3-3-3-3-3-3-3-3-3-3-3-3-3-3-3-|
   1 + 2 + 3 + 4 + 1 + 2 + 3 + 4 +

Verse 4:27
G|-------------------------------------------------------------------|
D|-------------------------------------------------------------------|
A|---------------------------------------------8-8-6h8p6-5---5-------|
D|-0-------0-0-0-------0-0-0-------0-------0-0-----------------------|
   1 e + a 2 e + a 3 e + a 4 e + a 1 e + a 2 e + a 3  e  + a 4 e + a

G|-------------------------------------------------------------------|
D|-----------------------------------------------------------5-------|
A|---------------------------------------------8-8-6h8p6-5-----5-----|
D|-0-------0-0-0-------0-0-0-------0-------0-0-----------------------|
   1 e + a 2 e + a 3 e + a 4 e + a 1 e + a 2 e + a 3  e  + a 4 e + a

G|-------------------------------------------------------------------|
D|-------------------------------------------------------------------|
A|---------------------------------------------8-8-6h8p6-5---5-------|
D|-0---0-------0-0---0-0-------0-0-0-------0-0-----------------------|
   1 e + a 2 e + a 3 e + a 4 e + a 1 e + a 2 e + a 3  e  + a 4 e + a

G|-------------------------------------------------------------------|
D|-----------------------------------------------------------5-------|
A|---------------------------------------------8-8-6h8p6-5-----5-----|
D|-0-------0-0-0-------0-0-0-------0-------0-0-----------------------|
   1 e + a 2 e + a 3 e + a 4 e + a 1 e + a 2 e + a 3  e  + a 4 e + a

Chorus 4:48
G|-----------------------------------------------------------------|
D|-----------------------------------------------------------------|
A|-----------------------------------------------------------------|
D|-1-------1-1-1-1---------1-1-----5-------5-5-5-5---------5-5-----|
   1 e + a 2 e + a 3 e + a 4 e + a 1 e + a 2 e + a 3 e + a 4 e + a

G|-----------------------------------------------------------------|
D|-----------------------------------------------------------------|
A|-------------------------------------------------0-------1-------|
D|-0-------0-0-0-0---------0-0-----5-------------------------------|
   1 e + a 2 e + a 3 e + a 4 e + a 1 e + a 2 e + a 3 e + a 4 e + a

G|-----------------------------------------------------------------|
D|-----------------------------------------------------------------|
A|-----------------------------------------------------------------|
D|-1-------1-1-1-1---------1-1-----5-------5-5-5-5---------5-5-----|
   1 e + a 2 e + a 3 e + a 4 e + a 1 e + a 2 e + a 3 e + a 4 e + a

G|-----------------------------------------------------------------|
D|-----------------------------------------------------------------|
A|-----------------------------------------------------------------|
D|-0-------0-0-0-0---------0-0-----1---------------3-------1-------|
   1 e + a 2 e + a 3 e + a 4 e + a 1 e + a 2 e + a 3 e + a 4 e + a

G|-----------------------------------------------------------------|
D|-----------------------------------------------------------------|
A|-------------------------------------------------3---3---1---0---|
D|-5---5---5---5---5---5---7---8-\-1---1---1---1-1-----------------|
   1 + 2 + 3 + 4 + 1 + 2 + 3 + 4 + 1 + 2 + 3 + 4 + 1 + 2 + 3 + 4 +

G|-----------------------------------------------------------------|
D|-----------------------------------------------------------------|
A|-------------------------0---1-0-----------------3-------1---0---|
D|-5---5---5---5---5---5-----------1---1---1---1-1-----------------|
   1 + 2 + 3 + 4 + 1 + 2 + 3 + 4 + 1 + 2 + 3 + 4 + 1 + 2 + 3 + 4 +

Outro 5:32
G|----------------------------------------------------------------------|
D|o-------------------------------------------------------------5-------|
A|o-------------8-8-6h8p6-5---5-------------------8-8-6h8p6-5-----5-----|
D|--0-------------------------------x-0---------------------------------|
    1 e + a 2 e + a 3  e  + a 4 e + a 1 e + a 2 e + a 3  e  + a 4 e + a

G|--------------------------------------------------------------------|
D|-------------------------------------------------------------------o|
A|-------------8-8-6h8p6-5---5-------3-----5-----6-------------------o|
D|-0-------------------------------------0-----0-----1---1---1-3-3----|
   1 e + a 2 e + a 3  e  + a 4 e + a 1 e + a 2 e + a 3 e + a 4 e + a

G|-----------------------------------------------------------------|
D|-----------------------------------------------------------------|
A|-----------------------------------------------------------------|
D|-1-----------------------3---1---0-------------------------------|
   1 + 2 + 3 + 4 + 1 + 2 + 3 + 4 + 1 + 2 + 3 + 4 + 1 + 2 + 3 + 4 +
Tabbed by Dave Vucko
Suggest correction
Creating personal tab
Creating personal tab
You can edit any tab online and save it as your Personal.

You can edit, replace or remove any tab part or add personal notes – all changes will be seen only by you.

Personal tabs can be accessed anytime from any device, even offline.
Learn more »
comments
print report bad tab
guest
You may want to rate the tab now too:
select rating
Wanna post a correction for this tab? Suggest correction