Oops, an error
Loading. Please wait.

This Means War tab

version 3
version 3

Whole song

Interactive

3,359 views 1 this week
no commentswrite comment
1 2 3 4 5
1 last vote to show rating
add to favorites
×
Save as Personal and add changes to this tab that will be seen only by you. Learn more ›
×
You can save this tab as Personal to edit and correct it or add notes. All changes will be seen only by you. Learn more »
launch autoscroll
font size
0
reset
how to read this tab
guitar tuner
edit
Autoscroll
slow
fast
+/-
esc
set tempo
stop
This is not my tab, I simply borrowed it from desde55 because I haven't found a decent version
 of this song yet that wasn't in guitar pro or tab pro. I also included the bass from 
his guitar pro for you to use.
 Simply for the community, enjoy playing this awesome song.

Title: This Means War
Artist: Avenged Sevenfold
Album: Hail to the King
Author: desde55


Track 1: Harmony 1

E|---------------------------------|-----------------8---8---6-------|---------------------------------|
B|-8-------8---8---8---8---10--8---|-----8---8-------------------10--|-8-------8---8---8---8---10--8---|
G|-----7---------------------------|-7-----------7-------------------|-----7---------------------------|
D|---------------------------------|---------------------------------|---------------------------------|
A|---------------------------------|---------------------------------|---------------------------------|
D|---------------------------------|---------------------------------|---------------------------------|


E|-----------------8---8---6-------|---------------------------------|-----------------8---8---6-------|
B|-8-------8---8---------------10--|-8-------8---8---8---8---10--8---|-----8---8-------------------10--|
G|-----7---------------------------|-----7---------------------------|-7-----------7-------------------|
D|---------------------------------|---------------------------------|---------------------------------|
A|---------------------------------|---------------------------------|---------------------------------|
D|---------------------------------|---------------------------------|---------------------------------|


E|---------------------------------|-----------------8---8---6-------|---------------------------------|
B|-8-------8---8---8---8---10--8---|-8-------8---8---------------10--|-8---8---8---8---8---8---8---8---|
G|-----7---------------------------|-----7---------------------------|---------------------------------|
D|---------------------------------|---------------------------------|---------------------------------|
A|---------------------------------|---------------------------------|---------------------------------|
D|---------------------------------|---------------------------------|---------------------------------|


E|---------------------------------|--------|--------|--------|--------|--------|--------|
B|-8-------------------------------|--------|--------|--------|--------|--------|--------|
G|---------------------------------|--------|--------|--------|--------|--------|--------|
D|---------------------------------|--------|--------|--------|--------|--------|--------|
A|---------------------------------|--------|--------|--------|--------|--------|--------|
D|---------------------------------|--------|--------|--------|--------|--------|--------|


E|--------|--------|--------|--------|--------|--------|--------|--------|--------|
B|--------|--------|--------|--------|--------|--------|--------|--------|--------|
G|--------|--------|--------|--------|--------|--------|--------|--------|--------|
D|--------|--------|--------|--------|--------|--------|--------|--------|--------|
A|--------|--------|--------|--------|--------|--------|--------|--------|--------|
D|--------|--------|--------|--------|--------|--------|--------|--------|--------|


E|--------|--------|--------|--------|--------|--------|--------|--------|--------|
B|--------|--------|--------|--------|--------|--------|--------|--------|--------|
G|--------|--------|--------|--------|--------|--------|--------|--------|--------|
D|--------|--------|--------|--------|--------|--------|--------|--------|--------|
A|--------|--------|--------|--------|--------|--------|--------|--------|--------|
D|--------|--------|--------|--------|--------|--------|--------|--------|--------|


E|--------|--------|--------|--------|--------|--------|--------|--------|--------|
B|--------|--------|--------|--------|--------|--------|--------|--------|--------|
G|--------|--------|--------|--------|--------|--------|--------|--------|--------|
D|--------|--------|--------|--------|--------|--------|--------|--------|--------|
A|--------|--------|--------|--------|--------|--------|--------|--------|--------|
D|--------|--------|--------|--------|--------|--------|--------|--------|--------|


E|--------|-11--------11--------|-11--------13--------|-10--------10--------|-10--------11--------|
B|--------|------11--------11---|------11--------11---|------11--------11---|------11--------11---|
G|--------|---------------------|---------------------|---------------------|---------------------|
D|--------|---------------------|---------------------|---------------------|---------------------|
A|--------|---------------------|---------------------|---------------------|---------------------|
D|--------|---------------------|---------------------|---------------------|---------------------|


E|-10--------10--------|-10--------11--------|-10--------10--------|-10----13----|
B|------10--------10---|------10--------10---|------11--------11---|-------------|
G|---------------------|---------------------|---------------------|-------------|
D|---------------------|---------------------|---------------------|-------------|
A|---------------------|---------------------|---------------------|-------------|
D|---------------------|---------------------|---------------------|-------------|


E|-11--------11--------|-11--------13--------|-10--------10--------|-10--------11--------|
B|------11--------11---|------11--------11---|------11--------11---|------11--------11---|
G|---------------------|---------------------|---------------------|---------------------|
D|---------------------|---------------------|---------------------|---------------------|
A|---------------------|---------------------|---------------------|---------------------|
D|---------------------|---------------------|---------------------|---------------------|


E|-10--------10--------|-10--------11--------|-11--------11--------|-13--------11--------|
B|------10--------10---|------10--------10---|------11--------11---|------11--------11---|
G|---------------------|---------------------|---------------------|---------------------|
D|---------------------|---------------------|---------------------|---------------------|
A|---------------------|---------------------|---------------------|---------------------|
D|---------------------|---------------------|---------------------|---------------------|


E|---------------------|---------------------|---------------------|-8----8----6---------|
B|-8---------8----8----|-8----8----10---8----|-8---------8----8----|----------------10---|
G|------7--------------|---------------------|------7--------------|---------------------|
D|---------------------|---------------------|---------------------|---------------------|
A|---------------------|---------------------|---------------------|---------------------|
D|---------------------|---------------------|---------------------|---------------------|


E|---------------------|---------------------|---------------------|-8----8----6---------|
B|-8---------8----8----|-8----8----10---8----|-8---------8----8----|----------------10---|
G|------7--------------|---------------------|------7--------------|---------------------|
D|---------------------|---------------------|---------------------|---------------------|
A|---------------------|---------------------|---------------------|---------------------|
D|---------------------|---------------------|---------------------|---------------------|


E|--------|--------|--------|--------|--------|--------|--------|--------|--------|
B|--------|--------|--------|--------|--------|--------|--------|--------|--------|
G|--------|--------|--------|--------|--------|--------|--------|--------|--------|
D|--------|--------|--------|--------|--------|--------|--------|--------|--------|
A|--------|--------|--------|--------|--------|--------|--------|--------|--------|
D|--------|--------|--------|--------|--------|--------|--------|--------|--------|


E|--------|--------|--------|--------|--------|--------|--------|--------|--------|
B|--------|--------|--------|--------|--------|--------|--------|--------|--------|
G|--------|--------|--------|--------|--------|--------|--------|--------|--------|
D|--------|--------|--------|--------|--------|--------|--------|--------|--------|
A|--------|--------|--------|--------|--------|--------|--------|--------|--------|
D|--------|--------|--------|--------|--------|--------|--------|--------|--------|


E|--------|--------|--------|--------|--------|--------|--------|--------|--------|
B|--------|--------|--------|--------|--------|--------|--------|--------|--------|
G|--------|--------|--------|--------|--------|--------|--------|--------|--------|
D|--------|--------|--------|--------|--------|--------|--------|--------|--------|
A|--------|--------|--------|--------|--------|--------|--------|--------|--------|
D|--------|--------|--------|--------|--------|--------|--------|--------|--------|


E|--------|--------|--------|--------|--------|--------|--------|-11--------11--------|
B|--------|--------|--------|--------|--------|--------|--------|------11--------11---|
G|--------|--------|--------|--------|--------|--------|--------|---------------------|
D|--------|--------|--------|--------|--------|--------|--------|---------------------|
A|--------|--------|--------|--------|--------|--------|--------|---------------------|
D|--------|--------|--------|--------|--------|--------|--------|---------------------|


E|-11--------13--------|-10--------10--------|-10--------11--------|-10--------10--------|
B|------11--------11---|------11--------11---|------11--------11---|------10--------10---|
G|---------------------|---------------------|---------------------|---------------------|
D|---------------------|---------------------|---------------------|---------------------|
A|---------------------|---------------------|---------------------|---------------------|
D|---------------------|---------------------|---------------------|---------------------|


E|-10--------11--------|-10--------10--------|-10----13----|-11--------11--------|
B|------10--------10---|------11--------11---|-------------|------11--------11---|
G|---------------------|---------------------|-------------|---------------------|
D|---------------------|---------------------|-------------|---------------------|
A|---------------------|---------------------|-------------|---------------------|
D|---------------------|---------------------|-------------|---------------------|


E|-11--------13--------|-10--------10--------|-10--------11--------|-10--------10--------|
B|------11--------11---|------11--------11---|------11--------11---|------10--------10---|
G|---------------------|---------------------|---------------------|---------------------|
D|---------------------|---------------------|---------------------|---------------------|
A|---------------------|---------------------|---------------------|---------------------|
D|---------------------|---------------------|---------------------|---------------------|


E|-10--------11--------|-11--------11--------|-13--------11--------|---------------------|
B|------10--------10---|------11--------11---|------11--------11---|-8---------8----8----|
G|---------------------|---------------------|---------------------|------7--------------|
D|---------------------|---------------------|---------------------|---------------------|
A|---------------------|---------------------|---------------------|---------------------|
D|---------------------|---------------------|---------------------|---------------------|


E|---------------------|---------------------|-8----8----6---------|---------------------|
B|-8----8----10---8----|-8---------8----8----|----------------10---|-8---------8----8----|
G|---------------------|------7--------------|---------------------|------7--------------|
D|---------------------|---------------------|---------------------|---------------------|
A|---------------------|---------------------|---------------------|---------------------|
D|---------------------|---------------------|---------------------|---------------------|


E|---------------------|---------------------|-8----8----6---------|---------------------|
B|-8----8----10---8----|-8---------8----8----|----------------10---|-8---------8----8----|
G|---------------------|------7--------------|---------------------|------7--------------|
D|---------------------|---------------------|---------------------|---------------------|
A|---------------------|---------------------|---------------------|---------------------|
D|---------------------|---------------------|---------------------|---------------------|


E|---------------------|---------------------|-8----8----6---------|---------------------|
B|-8----8----10---8----|-8---------8----8----|----------------10---|-8---------8----8----|
G|---------------------|------7--------------|---------------------|------7--------------|
D|---------------------|---------------------|---------------------|---------------------|
A|---------------------|---------------------|---------------------|---------------------|
D|---------------------|---------------------|---------------------|---------------------|


E|---------------------|---------------------|-8----8----6---------|--------|--------|
B|-8----8----10---8----|-8---------8----8----|----------------10---|--------|--------|
G|---------------------|------7--------------|---------------------|--------|--------|
D|---------------------|---------------------|---------------------|--------|--------|
A|---------------------|---------------------|---------------------|--------|--------|
D|---------------------|---------------------|---------------------|--------|--------|


E|--------|--------|--------|--------|--------|--------|--------|--------|--------|
B|--------|--------|--------|--------|--------|--------|--------|--------|--------|
G|--------|--------|--------|--------|--------|--------|--------|--------|--------|
D|--------|--------|--------|--------|--------|--------|--------|--------|--------|
A|--------|--------|--------|--------|--------|--------|--------|--------|--------|
D|--------|--------|--------|--------|--------|--------|--------|--------|--------|


E|--------|--------|--------|--------|--------|-11--------11--------|-11--------13--------|
B|--------|--------|--------|--------|--------|------11--------11---|------11--------11---|
G|--------|--------|--------|--------|--------|---------------------|---------------------|
D|--------|--------|--------|--------|--------|---------------------|---------------------|
A|--------|--------|--------|--------|--------|---------------------|---------------------|
D|--------|--------|--------|--------|--------|---------------------|---------------------|


E|-10--------10--------|-10--------11--------|-10--------10--------|-10--------11--------|
B|------11--------11---|------11--------11---|------10--------10---|------10--------10---|
G|---------------------|---------------------|---------------------|---------------------|
D|---------------------|---------------------|---------------------|---------------------|
A|---------------------|---------------------|---------------------|---------------------|
D|---------------------|---------------------|---------------------|---------------------|


E|-10--------10--------|-10----13----|-11--------11--------|-11--------13--------|
B|------11--------11---|-------------|------11--------11---|------11--------11---|
G|---------------------|-------------|---------------------|---------------------|
D|---------------------|-------------|---------------------|---------------------|
A|---------------------|-------------|---------------------|---------------------|
D|---------------------|-------------|---------------------|---------------------|


E|-10--------10--------|-10--------11--------|-10--------10--------|-10--------11--------|
B|------11--------11---|------11--------11---|------10--------10---|------10--------10---|
G|---------------------|---------------------|---------------------|---------------------|
D|---------------------|---------------------|---------------------|---------------------|
A|---------------------|---------------------|---------------------|---------------------|
D|---------------------|---------------------|---------------------|---------------------|


E|-11--------11--------|-13--------11--------|---------------------|---------------------|
B|------11--------11---|------11--------11---|-8---------8----8----|-8----8----10---8----|
G|---------------------|---------------------|------7--------------|---------------------|
D|---------------------|---------------------|---------------------|---------------------|
A|---------------------|---------------------|---------------------|---------------------|
D|---------------------|---------------------|---------------------|---------------------|


E|---------------------|-8----8----6---------|---------------------|---------------------|
B|-8---------8----8----|----------------10---|-8---------8----8----|-8----8----10---8----|
G|------7--------------|---------------------|------7--------------|---------------------|
D|---------------------|---------------------|---------------------|---------------------|
A|---------------------|---------------------|---------------------|---------------------|
D|---------------------|---------------------|---------------------|---------------------|


E|---------------------|-8----8----6---------|---------------------|---------------------|
B|-8---------8----8----|----------------10---|-8---------8----8----|-8----8----10---8----|
G|------7--------------|---------------------|------7--------------|---------------------|
D|---------------------|---------------------|---------------------|---------------------|
A|---------------------|---------------------|---------------------|---------------------|
D|---------------------|---------------------|---------------------|---------------------|


E|---------------------|-8----8----6---------|---------------------|---------------------|
B|-8---------8----8----|----------------10---|-8---------8----8----|-8----8----10---8----|
G|------7--------------|---------------------|------7--------------|---------------------|
D|---------------------|---------------------|---------------------|---------------------|
A|---------------------|---------------------|---------------------|---------------------|
D|---------------------|---------------------|---------------------|---------------------|


E|---------------------|-8----8----6---------|---------------------|---------------------|
B|-8---------8----8----|----------------10---|-10---10---10---10---|-10---10---8----10---|
G|------7--------------|---------------------|---------------------|---------------------|
D|---------------------|---------------------|---------------------|---------------------|
A|---------------------|---------------------|---------------------|---------------------|
D|---------------------|---------------------|---------------------|---------------------|


E|---------------------|---------------------|--------|--------|--------|--------|
B|-10---10---10---10---|-10---10---10---10---|--------|--------|--------|--------|
G|---------------------|---------------------|--------|--------|--------|--------|
D|---------------------|---------------------|--------|--------|--------|--------|
A|---------------------|---------------------|--------|--------|--------|--------|
D|---------------------|---------------------|--------|--------|--------|--------|


E|--------|--------|--------|--------|--------|--------|--------|--------|--------|
B|--------|--------|--------|--------|--------|--------|--------|--------|--------|
G|--------|--------|--------|--------|--------|--------|--------|--------|--------|
D|--------|--------|--------|--------|--------|--------|--------|--------|--------|
A|--------|--------|--------|--------|--------|--------|--------|--------|--------|
D|--------|--------|--------|--------|--------|--------|--------|--------|--------|


E|--------|--------|--------|-11--------11--------|-11--------13--------|-10--------10--------|
B|--------|--------|--------|------11--------11---|------11--------11---|------11--------11---|
G|--------|--------|--------|---------------------|---------------------|---------------------|
D|--------|--------|--------|---------------------|---------------------|---------------------|
A|--------|--------|--------|---------------------|---------------------|---------------------|
D|--------|--------|--------|---------------------|---------------------|---------------------|


E|-10--------11--------|-10--------10--------|-10--------11--------|-10--------10--------|
B|------11--------11---|------10--------10---|------10--------10---|------11--------11---|
G|---------------------|---------------------|---------------------|---------------------|
D|---------------------|---------------------|---------------------|---------------------|
A|---------------------|---------------------|---------------------|---------------------|
D|---------------------|---------------------|---------------------|---------------------|


E|-10----13----|-11--------11--------|-11--------13--------|-10--------10--------|
B|-------------|------11--------11---|------11--------11---|------11--------11---|
G|-------------|---------------------|---------------------|---------------------|
D|-------------|---------------------|---------------------|---------------------|
A|-------------|---------------------|---------------------|---------------------|
D|-------------|---------------------|---------------------|---------------------|


E|-10--------11--------|-10--------10--------|-10--------11--------|-11--------11--------|
B|------11--------11---|------10--------10---|------10--------10---|------11--------11---|
G|---------------------|---------------------|---------------------|---------------------|
D|---------------------|---------------------|---------------------|---------------------|
A|---------------------|---------------------|---------------------|---------------------|
D|---------------------|---------------------|---------------------|---------------------|


E|-13--------11--------|---------------------|---------------------|---------------------|
B|------11--------11---|-8---------8----8----|-8----8----10---8----|-8---------8----8----|
G|---------------------|------7--------------|---------------------|------7--------------|
D|---------------------|---------------------|---------------------|---------------------|
A|---------------------|---------------------|---------------------|---------------------|
D|---------------------|---------------------|---------------------|---------------------|


E|-8----8----6---------|---------------------|---------------------|---------------------|
B|----------------10---|-8---------8----8----|-8----8----10---8----|-8---------8----8----|
G|---------------------|------7--------------|---------------------|------7--------------|
D|---------------------|---------------------|---------------------|---------------------|
A|---------------------|---------------------|---------------------|---------------------|
D|---------------------|---------------------|---------------------|---------------------|


E|-8----8----6---------|---------------------|---------------------|---------------------|
B|----------------10---|-8---------8----8----|-8----8----10---8----|-8---------8----8----|
G|---------------------|------7--------------|---------------------|------7--------------|
D|---------------------|---------------------|---------------------|---------------------|
A|---------------------|---------------------|---------------------|---------------------|
D|---------------------|---------------------|---------------------|---------------------|


E|-8----8----6---------|---------------------|---------------------|---------------------|
B|----------------10---|-8---------8----8----|-8----8----10---8----|-8---------8----8----|
G|---------------------|------7--------------|---------------------|------7--------------|
D|---------------------|---------------------|---------------------|---------------------|
A|---------------------|---------------------|---------------------|---------------------|
D|---------------------|---------------------|---------------------|---------------------|


E|-8----8----6---------|--------|--------|--------|--------|--------|--------|--------|
B|----------------10---|--------|--------|--------|--------|--------|--------|--------|
G|---------------------|--------|--------|--------|--------|--------|--------|--------|
D|---------------------|--------|--------|--------|--------|--------|--------|--------|
A|---------------------|--------|--------|--------|--------|--------|--------|--------|
D|---------------------|--------|--------|--------|--------|--------|--------|--------|


E|--------|--------|--------|--------|--------|--------|--------|--------|--------|
B|--------|--------|--------|--------|--------|--------|--------|--------|--------|
G|--------|--------|--------|--------|--------|--------|--------|--------|--------|
D|--------|--------|--------|--------|--------|--------|--------|--------|--------|
A|--------|--------|--------|--------|--------|--------|--------|--------|--------|
D|--------|--------|--------|--------|--------|--------|--------|--------|--------|


E|--------|--------|--------|--------|
B|--------|--------|--------|--------|
G|--------|--------|--------|--------|
D|--------|--------|--------|--------|
A|--------|--------|--------|--------|
D|--------|--------|--------|--------|





Track 2: Harmony 2

E|-6-------6---6---6---6---8---6---|-----6---6-------11--11--10--8---|-6-------6---6---6---6---8---6---|
B|-----8---------------------------|-8-----------8-------------------|-----8---------------------------|
G|---------------------------------|---------------------------------|---------------------------------|
D|---------------------------------|---------------------------------|---------------------------------|
A|---------------------------------|---------------------------------|---------------------------------|
D|---------------------------------|---------------------------------|---------------------------------|


E|-----6---6-------11--11--10--8---|-6-------6---6---6---6---8---6---|-----6---6-------11--11--10--8---|
B|-8-----------8-------------------|-----8---------------------------|-8-----------8-------------------|
G|---------------------------------|---------------------------------|---------------------------------|
D|---------------------------------|---------------------------------|---------------------------------|
A|---------------------------------|---------------------------------|---------------------------------|
D|---------------------------------|---------------------------------|---------------------------------|


E|-6-------6---6---6---6---8---6---|-----6---6-------11--11--10--8---|-6---6---6---6---6---6---6---6---|
B|-----8---------------------------|-8-----------8-------------------|---------------------------------|
G|---------------------------------|---------------------------------|---------------------------------|
D|---------------------------------|---------------------------------|---------------------------------|
A|---------------------------------|---------------------------------|---------------------------------|
D|---------------------------------|---------------------------------|---------------------------------|


E|-6--------------|--------|--------|--------|--------|--------|--------|--------|
B|----------------|--------|--------|--------|--------|--------|--------|--------|
G|----------------|--------|--------|--------|--------|--------|--------|--------|
D|----------------|--------|--------|--------|--------|--------|--------|--------|
A|----------------|--------|--------|--------|--------|--------|--------|--------|
D|----------------|--------|--------|--------|--------|--------|--------|--------|


E|--------|--------|--------|--------|--------|--------|--------|--------|--------|
B|--------|--------|--------|--------|--------|--------|--------|--------|--------|
G|--------|--------|--------|--------|--------|--------|--------|--------|--------|
D|--------|--------|--------|--------|--------|--------|--------|--------|--------|
A|--------|--------|--------|--------|--------|--------|--------|--------|--------|
D|--------|--------|--------|--------|--------|--------|--------|--------|--------|


E|--------|--------|--------|--------|--------|--------|--------|--------|--------|
B|--------|--------|--------|--------|--------|--------|--------|--------|--------|
G|--------|--------|--------|--------|--------|--------|--------|--------|--------|
D|--------|--------|--------|--------|--------|--------|--------|--------|--------|
A|--------|--------|--------|--------|--------|--------|--------|--------|--------|
D|--------|--------|--------|--------|--------|--------|--------|--------|--------|


E|--------|--------|--------|--------|--------|--------|--------|--------|--------|
B|--------|--------|--------|--------|--------|--------|--------|--------|--------|
G|--------|--------|--------|--------|--------|--------|--------|--------|--------|
D|--------|--------|--------|--------|--------|--------|--------|--------|--------|
A|--------|--------|--------|--------|--------|--------|--------|--------|--------|
D|--------|--------|--------|--------|--------|--------|--------|--------|--------|


E|--------|--------|--------|--------|--------|--------|--------|-5-----10----|-6---------6---------|
B|--------|--------|--------|--------|--------|--------|--------|-------------|------8---------8----|
G|--------|--------|--------|--------|--------|--------|--------|-------------|---------------------|
D|--------|--------|--------|--------|--------|--------|--------|-------------|---------------------|
A|--------|--------|--------|--------|--------|--------|--------|-------------|---------------------|
D|--------|--------|--------|--------|--------|--------|--------|-------------|---------------------|


E|-6---------10--------|-6---------6---------|-6---------8---------|-5---------5---------|
B|------8---------8----|------8---------8----|------8---------8----|------7---------7----|
G|---------------------|---------------------|---------------------|---------------------|
D|---------------------|---------------------|---------------------|---------------------|
A|---------------------|---------------------|---------------------|---------------------|
D|---------------------|---------------------|---------------------|---------------------|


E|-5---------8---------|-6---------6---------|-8---------6---------|-6---------6----6----|
B|------7---------7----|------8---------8----|------8---------8----|------8--------------|
G|---------------------|---------------------|---------------------|---------------------|
D|---------------------|---------------------|---------------------|---------------------|
A|---------------------|---------------------|---------------------|---------------------|
D|---------------------|---------------------|---------------------|---------------------|


E|-6----6----8----6----|-6---------6----6----|-11---11---10---8----|-6---------6----6----|
B|---------------------|------8--------------|---------------------|------8--------------|
G|---------------------|---------------------|---------------------|---------------------|
D|---------------------|---------------------|---------------------|---------------------|
A|---------------------|---------------------|---------------------|---------------------|
D|---------------------|---------------------|---------------------|---------------------|


E|-6----6----8----6----|-6---------6----6----|-11---11---10---8----|--------|--------|
B|---------------------|------8--------------|---------------------|--------|--------|
G|---------------------|---------------------|---------------------|--------|--------|
D|---------------------|---------------------|---------------------|--------|--------|
A|---------------------|---------------------|---------------------|--------|--------|
D|---------------------|---------------------|---------------------|--------|--------|


E|--------|--------|--------|--------|--------|--------|--------|--------|--------|
B|--------|--------|--------|--------|--------|--------|--------|--------|--------|
G|--------|--------|--------|--------|--------|--------|--------|--------|--------|
D|--------|--------|--------|--------|--------|--------|--------|--------|--------|
A|--------|--------|--------|--------|--------|--------|--------|--------|--------|
D|--------|--------|--------|--------|--------|--------|--------|--------|--------|


E|--------|--------|--------|--------|--------|--------|--------|--------|--------|
B|--------|--------|--------|--------|--------|--------|--------|--------|--------|
G|--------|--------|--------|--------|--------|--------|--------|--------|--------|
D|--------|--------|--------|--------|--------|--------|--------|--------|--------|
A|--------|--------|--------|--------|--------|--------|--------|--------|--------|
D|--------|--------|--------|--------|--------|--------|--------|--------|--------|


E|--------|--------|--------|--------|--------|--------|--------|--------|--------|
B|--------|--------|--------|--------|--------|--------|--------|--------|--------|
G|--------|--------|--------|--------|--------|--------|--------|--------|--------|
D|--------|--------|--------|--------|--------|--------|--------|--------|--------|
A|--------|--------|--------|--------|--------|--------|--------|--------|--------|
D|--------|--------|--------|--------|--------|--------|--------|--------|--------|


E|--------|--------|--------|--------|--------|--------|--------|--------|--------|
B|--------|--------|--------|--------|--------|--------|--------|--------|--------|
G|--------|--------|--------|--------|--------|--------|--------|--------|--------|
D|--------|--------|--------|--------|--------|--------|--------|--------|--------|
A|--------|--------|--------|--------|--------|--------|--------|--------|--------|
D|--------|--------|--------|--------|--------|--------|--------|--------|--------|


E|--------|--------|--------|-5-----10----|-6---------6---------|-6---------10--------|
B|--------|--------|--------|-------------|------8---------8----|------8---------8----|
G|--------|--------|--------|-------------|---------------------|---------------------|
D|--------|--------|--------|-------------|---------------------|---------------------|
A|--------|--------|--------|-------------|---------------------|---------------------|
D|--------|--------|--------|-------------|---------------------|---------------------|


E|-6---------6---------|-6---------8---------|-5---------5---------|-5---------8---------|
B|------8---------8----|------8---------8----|------7---------7----|------7---------7----|
G|---------------------|---------------------|---------------------|---------------------|
D|---------------------|---------------------|---------------------|---------------------|
A|---------------------|---------------------|---------------------|---------------------|
D|---------------------|---------------------|---------------------|---------------------|


E|-6---------6---------|-8---------6---------|-6---------6----6----|-6----6----8----6----|
B|------8---------8----|------8---------8----|------8--------------|---------------------|
G|---------------------|---------------------|---------------------|---------------------|
D|---------------------|---------------------|---------------------|---------------------|
A|---------------------|---------------------|---------------------|---------------------|
D|---------------------|---------------------|---------------------|---------------------|


E|-6---------6----6----|-11---11---10---8----|-6---------6----6----|-6----6----8----6----|
B|------8--------------|---------------------|------8--------------|---------------------|
G|---------------------|---------------------|---------------------|---------------------|
D|---------------------|---------------------|---------------------|---------------------|
A|---------------------|---------------------|---------------------|---------------------|
D|---------------------|---------------------|---------------------|---------------------|


E|-6---------6----6----|-11---11---10---8----|-6---------6----6----|-6----6----8----6----|
B|------8--------------|---------------------|------8--------------|---------------------|
G|---------------------|---------------------|---------------------|---------------------|
D|---------------------|---------------------|---------------------|---------------------|
A|---------------------|---------------------|---------------------|---------------------|
D|---------------------|---------------------|---------------------|---------------------|


E|-6---------6----6----|-11---11---10---8----|-6---------6----6----|-6----6----8----6----|
B|------8--------------|---------------------|------8--------------|---------------------|
G|---------------------|---------------------|---------------------|---------------------|
D|---------------------|---------------------|---------------------|---------------------|
A|---------------------|---------------------|---------------------|---------------------|
D|---------------------|---------------------|---------------------|---------------------|


E|-6---------6----6----|-11---11---10---8----|--------|--------|--------|--------|
B|------8--------------|---------------------|--------|--------|--------|--------|
G|---------------------|---------------------|--------|--------|--------|--------|
D|---------------------|---------------------|--------|--------|--------|--------|
A|---------------------|---------------------|--------|--------|--------|--------|
D|---------------------|---------------------|--------|--------|--------|--------|


E|--------|--------|--------|--------|--------|--------|--------|--------|--------|
B|--------|--------|--------|--------|--------|--------|--------|--------|--------|
G|--------|--------|--------|--------|--------|--------|--------|--------|--------|
D|--------|--------|--------|--------|--------|--------|--------|--------|--------|
A|--------|--------|--------|--------|--------|--------|--------|--------|--------|
D|--------|--------|--------|--------|--------|--------|--------|--------|--------|


E|--------|--------|--------|--------|--------|--------|--------|--------|--------|
B|--------|--------|--------|--------|--------|--------|--------|--------|--------|
G|--------|--------|--------|--------|--------|--------|--------|--------|--------|
D|--------|--------|--------|--------|--------|--------|--------|--------|--------|
A|--------|--------|--------|--------|--------|--------|--------|--------|--------|
D|--------|--------|--------|--------|--------|--------|--------|--------|--------|


E|--------|-5-----10----|-6---------6---------|-6---------10--------|-6---------6---------|
B|--------|-------------|------8---------8----|------8---------8----|------8---------8----|
G|--------|-------------|---------------------|---------------------|---------------------|
D|--------|-------------|---------------------|---------------------|---------------------|
A|--------|-------------|---------------------|---------------------|---------------------|
D|--------|-------------|---------------------|---------------------|---------------------|


E|-6---------8---------|-5---------5---------|-5---------8---------|-6---------6---------|
B|------8---------8----|------7---------7----|------7---------7----|------8---------8----|
G|---------------------|---------------------|---------------------|---------------------|
D|---------------------|---------------------|---------------------|---------------------|
A|---------------------|---------------------|---------------------|---------------------|
D|---------------------|---------------------|---------------------|---------------------|


E|-8---------6---------|-6---------6----6----|-6----6----8----6----|-6---------6----6----|
B|------8---------8----|------8--------------|---------------------|------8--------------|
G|---------------------|---------------------|---------------------|---------------------|
D|---------------------|---------------------|---------------------|---------------------|
A|---------------------|---------------------|---------------------|---------------------|
D|---------------------|---------------------|---------------------|---------------------|


E|-11---11---10---8----|-6---------6----6----|-6----6----8----6----|-6---------6----6----|
B|---------------------|------8--------------|---------------------|------8--------------|
G|---------------------|---------------------|---------------------|---------------------|
D|---------------------|---------------------|---------------------|---------------------|
A|---------------------|---------------------|---------------------|---------------------|
D|---------------------|---------------------|---------------------|---------------------|


E|-11---11---10---8----|-6---------6----6----|-6----6----8----6----|-6---------6----6----|
B|---------------------|------8--------------|---------------------|------8--------------|
G|---------------------|---------------------|---------------------|---------------------|
D|---------------------|---------------------|---------------------|---------------------|
A|---------------------|---------------------|---------------------|---------------------|
D|---------------------|---------------------|---------------------|---------------------|


E|-11---11---10---8----|-6---------6----6----|-6----6----8----6----|-6---------6----6----|
B|---------------------|------8--------------|---------------------|------8--------------|
G|---------------------|---------------------|---------------------|---------------------|
D|---------------------|---------------------|---------------------|---------------------|
A|---------------------|---------------------|---------------------|---------------------|
D|---------------------|---------------------|---------------------|---------------------|


E|-11---11---10---8----|-8----8----8----8----|-8----8----6----8----|-8----8----8----8----|
B|---------------------|---------------------|---------------------|---------------------|
G|---------------------|---------------------|---------------------|---------------------|
D|---------------------|---------------------|---------------------|---------------------|
A|---------------------|---------------------|---------------------|---------------------|
D|---------------------|---------------------|---------------------|---------------------|


E|-8----8----8----8----|--------|--------|--------|--------|--------|--------|--------|
B|---------------------|--------|--------|--------|--------|--------|--------|--------|
G|---------------------|--------|--------|--------|--------|--------|--------|--------|
D|---------------------|--------|--------|--------|--------|--------|--------|--------|
A|---------------------|--------|--------|--------|--------|--------|--------|--------|
D|---------------------|--------|--------|--------|--------|--------|--------|--------|


E|--------|--------|--------|--------|--------|--------|--------|--------|--------|
B|--------|--------|--------|--------|--------|--------|--------|--------|--------|
G|--------|--------|--------|--------|--------|--------|--------|--------|--------|
D|--------|--------|--------|--------|--------|--------|--------|--------|--------|
A|--------|--------|--------|--------|--------|--------|--------|--------|--------|
D|--------|--------|--------|--------|--------|--------|--------|--------|--------|


E|--------|--------|--------|--------|--------|--------|--------|-5-----10----|-6---------6---------|
B|--------|--------|--------|--------|--------|--------|--------|-------------|------8---------8----|
G|--------|--------|--------|--------|--------|--------|--------|-------------|---------------------|
D|--------|--------|--------|--------|--------|--------|--------|-------------|---------------------|
A|--------|--------|--------|--------|--------|--------|--------|-------------|---------------------|
D|--------|--------|--------|--------|--------|--------|--------|-------------|---------------------|


E|-6---------10--------|-6---------6---------|-6---------8---------|-5---------5---------|
B|------8---------8----|------8---------8----|------8---------8----|------7---------7----|
G|---------------------|---------------------|---------------------|---------------------|
D|---------------------|---------------------|---------------------|---------------------|
A|---------------------|---------------------|---------------------|---------------------|
D|---------------------|---------------------|---------------------|---------------------|


E|-5---------8---------|-6---------6---------|-8---------6---------|-6---------6----6----|
B|------7---------7----|------8---------8----|------8---------8----|------8--------------|
G|---------------------|---------------------|---------------------|---------------------|
D|---------------------|---------------------|---------------------|---------------------|
A|---------------------|---------------------|---------------------|---------------------|
D|---------------------|---------------------|---------------------|---------------------|


E|-6----6----8----6----|-6---------6----6----|-11---11---10---8----|-6---------6----6----|
B|---------------------|------8--------------|---------------------|------8--------------|
G|---------------------|---------------------|---------------------|---------------------|
D|---------------------|---------------------|---------------------|---------------------|
A|---------------------|---------------------|---------------------|---------------------|
D|---------------------|---------------------|---------------------|---------------------|


E|-6----6----8----6----|-6---------6----6----|-11---11---10---8----|-6---------6----6----|
B|---------------------|------8--------------|---------------------|------8--------------|
G|---------------------|---------------------|---------------------|---------------------|
D|---------------------|---------------------|---------------------|---------------------|
A|---------------------|---------------------|---------------------|---------------------|
D|---------------------|---------------------|---------------------|---------------------|


E|-6----6----8----6----|-6---------6----6----|-11---11---10---8----|-6---------6----6----|
B|---------------------|------8--------------|---------------------|------8--------------|
G|---------------------|---------------------|---------------------|---------------------|
D|---------------------|---------------------|---------------------|---------------------|
A|---------------------|---------------------|---------------------|---------------------|
D|---------------------|---------------------|---------------------|---------------------|


E|-6----6----8----6----|-6---------6----6----|-11---11---10---8----|--------|--------|
B|---------------------|------8--------------|---------------------|--------|--------|
G|---------------------|---------------------|---------------------|--------|--------|
D|---------------------|---------------------|---------------------|--------|--------|
A|---------------------|---------------------|---------------------|--------|--------|
D|---------------------|---------------------|---------------------|--------|--------|


E|--------|--------|--------|--------|--------|--------|--------|--------|--------|
B|--------|--------|--------|--------|--------|--------|--------|--------|--------|
G|--------|--------|--------|--------|--------|--------|--------|--------|--------|
D|--------|--------|--------|--------|--------|--------|--------|--------|--------|
A|--------|--------|--------|--------|--------|--------|--------|--------|--------|
D|--------|--------|--------|--------|--------|--------|--------|--------|--------|


E|--------|--------|--------|--------|--------|--------|--------|--------|--------|
B|--------|--------|--------|--------|--------|--------|--------|--------|--------|
G|--------|--------|--------|--------|--------|--------|--------|--------|--------|
D|--------|--------|--------|--------|--------|--------|--------|--------|--------|
A|--------|--------|--------|--------|--------|--------|--------|--------|--------|
D|--------|--------|--------|--------|--------|--------|--------|--------|--------|





Track 3: Rhythm 1

E|-----------------------|---------------------------------|--------|----------------|
B|-----------------------|---------------------------------|--------|----------------|
G|-----------------------|---------------------------------|--------|-5--------------|
D|-5---------------------|---------------------------------|-1------|-5--------------|
A|-5-----5---5---5---5---|-5-------------------------------|-1------|-3------8---7---|
D|-5-----5---5---5---5---|-5-------------------------------|-1------|--------8---7---|


E|-----------------------|---------------------------------|--------|--------|
B|-----------------------|---------------------------------|--------|--------|
G|-----------------------|---------------------------------|--------|--------|
D|-5---------------------|---------------------------------|-1------|-3------|
A|-5-----5---5---5---5---|-5-------------------------------|-1------|-3------|
D|-5-----5---5---5---5---|-5-------------------------------|-1------|-3------|

|---------------------------------|
|---------------------------------|
|---------------------------------|
|---------------------------------|
|-3---3---3---3---3---3---3---3---|
|-3---3---3---3---3---3---3---3---|


E|---------------------------------|-------------|-------------------------------|
B|---------------------------------|-------------|-------------------------------|
G|---------------------------------|-------------|-------------------------------|
D|---------------------------------|-0-----------|-------------------------------|
A|-3-------------------------------|-0------8----|-6---8---6---5-------5----0----|
D|-3-------------------------------|-0-----------|--------------------------0----|


E|-------------|-------------------------------|----------------|---------------------------|
B|-------------|-------------------------------|----------------|---------------------------|
G|-------------|-------------------------------|----------------|---------------------------|
D|-------------|---------------------5---------|-0--------------|---------------------------|
A|-0------8----|-6---8---6---5-----------5-----|-0------8---8---|-6---8---6---5-------5-----|
D|-0-----------|-------------------------------|-0--------------|---------------------------|


E|------------------------|---------------------|-------------|-------------------------------|
B|------------------------|---------------------|-------------|-------------------------------|
G|------------------------|---------------------|-------------|-------------------------------|
D|-5--------7--------8----|---------------------|-0-----------|-------------------------------|
A|-3--------5--------6----|-1----1----1---3-----|-0------8----|-6---8---6---5-------5----0----|
D|------0--------0--------|-1----1----1---3-----|-0-----------|--------------------------0----|


E|-------------|-------------------------------|----------------|---------------------------|
B|-------------|-------------------------------|----------------|---------------------------|
G|-------------|-------------------------------|----------------|---------------------------|
D|-------------|---------------------5---------|-0--------------|---------------------------|
A|-0------8----|-6---8---6---5-----------5-----|-0------8---8---|-6---8---6---5-------5-----|
D|-0-----------|-------------------------------|-0--------------|---------------------------|


E|------------------------|---------------------|--------|-----------------------|
B|------------------------|---------------------|--------|-----------------------|
G|------------------------|---------------------|--------|-----------------------|
D|-5--------7--------8----|---------------------|-1------|-1---------------------|
A|-3--------5--------6----|-1----1----1---3-----|-1------|-1-----1---1-----------|
D|------0--------0--------|-1----1----1---3-----|-1------|-1-----1---1-----------|


E|-----------------------|------------------------------|-----------------------|
B|-----------------------|------------------------------|-----------------------|
G|-----------------------|------------------------------|-----------------------|
D|-0---------------------|------------------------------|-0---------------------|
A|-0-----0---0---0-------|------0---0---0---------------|-0-----0---0---8---8---|
D|-0-----0---0---0-------|------0---0---0---------------|-0-----0---0-----------|

|---------------------------|
|---------------------------|
|---------------------------|
|---------------------------|
|-6---8---6---5-------5-----|
|---------------------------|



E|-----------------------|------------------------------|-----------------------|
B|-----------------------|------------------------------|-----------------------|
G|-----------------------|------------------------------|-----------------------|
D|-0---------------------|------------------------------|-0---------------------|
A|-0-----0---0---0-------|------0---0---0---------------|-0-----0---0---8---8---|
D|-0-----0---0---0-------|------0---0---0---------------|-0-----0---0-----------|

|-------------------------------|
|-------------------------------|
|-------------------------------|
|---------------------5---------|
|-6---8---6---5-----------5-----|
|-------------------------------|


E|-----------------------|------------------------------|-----------------------|
B|-----------------------|------------------------------|-----------------------|
G|-----------------------|------------------------------|-----------------------|
D|-0---------------------|------------------------------|-0---------------------|
A|-0-----0---0---0-------|------0---0---0---------------|-0-----0---0---8---8---|
D|-0-----0---0---0-------|------0---0---0---------------|-0-----0---0-----------|

|---------------------------|
|---------------------------|
|---------------------------|
|---------------------------|
|-6---8---6---5-------5-----|
|---------------------------|


E|-----------------------|------------------------------|-----------------------|
B|-----------------------|------------------------------|-----------------------|
G|-----------------------|------------------------------|-----------------------|
D|-0---------------------|------------------------------|-0---------------------|
A|-0-----0---0---0-------|------0---0---0---------------|-0-----0---0---8---8---|
D|-0-----0---0---0-------|------0---0---0---------------|-0-----0---0-----------|

|-------------------------------|
|-------------------------------|
|-------------------------------|
|---------------------5---------|
|-6---8---6---5-----------5-----|
|-------------------------------|


E|-----------------------|--------------------|-----------------------|--------------------|
B|-----------------------|--------------------|-----------------------|--------------------|
G|-----------------------|--------------------|-----------------------|--------------------|
D|-1---------------------|--------------------|-5---------------------|--------------------|
A|-1-----1---1---1---1---|-------1---1--------|-5-----5---5---5---5---|-------5---5--------|
D|-1-----1---1---1---1---|-------1---1--------|-5-----5---5---5---5---|-------5---5--------|


E|-----------------------|--------------------|--------|-------------|-----------------------|
B|-----------------------|--------------------|--------|-------------|-----------------------|
G|-----------------------|--------------------|--------|-------------|-----------------------|
D|-0---------------------|--------------------|-5------|-7-----8-----|-1---------------------|
A|-0-----0---0---0---0---|-------0---0--------|-5------|-7-----8-----|-1-----1---1---1---1---|
D|-0-----0---0---0---0---|-------0---0--------|-5------|-7-----8-----|-1-----1---1---1---1---|


E|--------------------|-----------------------|--------------------|-----------------------|
B|--------------------|-----------------------|--------------------|-----------------------|
G|--------------------|-----------------------|--------------------|-----------------------|
D|--------------------|-5---------------------|--------------------|-0---------------------|
A|-------1---1--------|-5-----5---5---5---5---|-------5---5--------|-0-----0---0---0---0---|
D|-------1---1--------|-5-----5---5---5---5---|-------5---5--------|-0-----0---0---0---0---|


E|--------------------|--------|-------------|--------|--------|--------|--------|
B|--------------------|--------|-------------|--------|--------|--------|--------|
G|--------------------|--------|-------------|--------|--------|--------|--------|
D|--------------------|-1------|-3-----1-----|-5------|-5------|-5------|-5------|
A|-------0---0--------|-1------|-3-----1-----|-5------|-5------|-5------|-5------|
D|-------0---0--------|-1------|-3-----1-----|-5------|-5------|-5------|-5------|


E|--------|--------|--------|-------------|-------------|-------------------------------|
B|--------|--------|--------|-------------|-------------|-------------------------------|
G|--------|--------|-5------|-3-----2-----|-------------|-------------------------------|
D|-1------|-1------|-5------|-3-----2-----|-0-----------|-------------------------------|
A|-1------|-1------|-3------|-1-----0-----|-0------8----|-6---8---6---5-------5----0----|
D|-1------|-1------|--------|-------------|-0-----------|--------------------------0----|


E|-------------|-------------------------------|----------------|---------------------------|
B|-------------|-------------------------------|----------------|---------------------------|
G|-------------|-------------------------------|----------------|---------------------------|
D|-------------|---------------------5---------|-0--------------|---------------------------|
A|-0------8----|-6---8---6---5-----------5-----|-0------8---8---|-6---8---6---5-------5-----|
D|-0-----------|-------------------------------|-0--------------|---------------------------|


E|------------------------|---------------------|-------------|-------------------------------|
B|------------------------|---------------------|-------------|-------------------------------|
G|------------------------|---------------------|-------------|-------------------------------|
D|-5--------7--------8----|---------------------|-0-----------|-------------------------------|
A|-3--------5--------6----|-1----1----1---3-----|-0------8----|-6---8---6---5-------5----0----|
D|------0--------0--------|-1----1----1---3-----|-0-----------|--------------------------0----|


E|-------------|-------------------------------|----------------|---------------------------|
B|-------------|-------------------------------|----------------|---------------------------|
G|-------------|-------------------------------|----------------|---------------------------|
D|-------------|---------------------5---------|-0--------------|---------------------------|
A|-0------8----|-6---8---6---5-----------5-----|-0------8---8---|-6---8---6---5-------5-----|
D|-0-----------|-------------------------------|-0--------------|---------------------------|


E|------------------------|---------------------|--------|-----------------------|
B|------------------------|---------------------|--------|-----------------------|
G|------------------------|---------------------|--------|-----------------------|
D|-5--------7--------8----|---------------------|-1------|-1---------------------|
A|-3--------5--------6----|-1----1----1---3-----|-1------|-1-----1---1-----------|
D|------0--------0--------|-1----1----1---3-----|-1------|-1-----1---1-----------|


E|-----------------------|------------------------------|-----------------------|
B|-----------------------|------------------------------|-----------------------|
G|-----------------------|------------------------------|-----------------------|
D|-0---------------------|------------------------------|-0---------------------|
A|-0-----0---0---0-------|------0---0---0---------------|-0-----0---0---8---8---|
D|-0-----0---0---0-------|------0---0---0---------------|-0-----0---0-----------|

|---------------------------|
|---------------------------|
|---------------------------|
|---------------------------|
|-6---8---6---5-------5-----|
|---------------------------|


E|-----------------------|------------------------------|-----------------------|
B|-----------------------|------------------------------|-----------------------|
G|-----------------------|------------------------------|-----------------------|
D|-0---------------------|------------------------------|-0---------------------|
A|-0-----0---0---0-------|------0---0---0---------------|-0-----0---0---8---8---|
D|-0-----0---0---0-------|------0---0---0---------------|-0-----0---0-----------|

|-------------------------------|
|-------------------------------|
|-------------------------------|
|---------------------5---------|
|-6---8---6---5-----------5-----|
|-------------------------------|


E|-----------------------|------------------------------|-----------------------|
B|-----------------------|------------------------------|-----------------------|
G|-----------------------|------------------------------|-----------------------|
D|-0---------------------|------------------------------|-0---------------------|
A|-0-----0---0---0-------|------0---0---0---------------|-0-----0---0---8---8---|
D|-0-----0---0---0-------|------0---0---0---------------|-0-----0---0-----------|

|---------------------------|
|---------------------------|
|---------------------------|
|---------------------------|
|-6---8---6---5-------5-----|
|---------------------------|



E|-----------------------|------------------------------|-----------------------|
B|-----------------------|------------------------------|-----------------------|
G|-----------------------|------------------------------|-----------------------|
D|-0---------------------|------------------------------|-0---------------------|
A|-0-----0---0---0-------|------0---0---0---------------|-0-----0---0---8---8---|
D|-0-----0---0---0-------|------0---0---0---------------|-0-----0---0-----------|

|-------------------------------|
|-------------------------------|
|-------------------------------|
|---------------------5---------|
|-6---8---6---5-----------5-----|
|-------------------------------|


E|-----------------------|--------------------|-----------------------|--------------------|
B|-----------------------|--------------------|-----------------------|--------------------|
G|-----------------------|--------------------|-----------------------|--------------------|
D|-1---------------------|--------------------|-5---------------------|--------------------|
A|-1-----1---1---1---1---|-------1---1--------|-5-----5---5---5---5---|-------5---5--------|
D|-1-----1---1---1---1---|-------1---1--------|-5-----5---5---5---5---|-------5---5--------|


E|-----------------------|--------------------|--------|-------------|-----------------------|
B|-----------------------|--------------------|--------|-------------|-----------------------|
G|-----------------------|--------------------|--------|-------------|-----------------------|
D|-0---------------------|--------------------|-5------|-7-----8-----|-1---------------------|
A|-0-----0---0---0---0---|-------0---0--------|-5------|-7-----8-----|-1-----1---1---1---1---|
D|-0-----0---0---0---0---|-------0---0--------|-5------|-7-----8-----|-1-----1---1---1---1---|


E|--------------------|-----------------------|--------------------|-----------------------|
B|--------------------|-----------------------|--------------------|-----------------------|
G|--------------------|-----------------------|--------------------|-----------------------|
D|--------------------|-5---------------------|--------------------|-0---------------------|
A|-------1---1--------|-5-----5---5---5---5---|-------5---5--------|-0-----0---0---0---0---|
D|-------1---1--------|-5-----5---5---5---5---|-------5---5--------|-0-----0---0---0---0---|


E|--------------------|--------|-------------|--------|--------|--------|--------|
B|--------------------|--------|-------------|--------|--------|--------|--------|
G|--------------------|--------|-------------|--------|--------|--------|--------|
D|--------------------|-1------|-3-----1-----|-5------|-5------|-5------|-5------|
A|-------0---0--------|-1------|-3-----1-----|-5------|-5------|-5------|-5------|
D|-------0---0--------|-1------|-3-----1-----|-5------|-5------|-5------|-5------|


E|--------|--------|--------|-------------|--------|--------|--------|--------|--------|
B|--------|--------|--------|-------------|--------|--------|--------|--------|--------|
G|--------|--------|-5------|-3-----2-----|--------|--------|--------|--------|--------|
D|-1------|-1------|-5------|-3-----2-----|-5------|-5------|-5------|-5------|-1------|
A|-1------|-1------|-3------|-1-----0-----|-5------|-5------|-5------|-5------|-1------|
D|-1------|-1------|--------|-------------|-5------|-5------|-5------|-5------|-1------|


E|--------|--------|-------------|----------------|--------------------|----------------|
B|--------|--------|-------------|----------------|--------------------|----------------|
G|--------|-5------|-3-----2-----|----------------|--------------------|----------------|
D|-1------|-5------|-3-----2-----|-0--------------|--------------------|-0--------------|
A|-1------|-3------|-1-----0-----|-0------0---0---|-----0---0----3-----|-0------0---0---|
D|-1------|--------|-------------|-0------0---0---|-----0---0----3-----|-0------0---0---|


E|--------------------|----------------|--------------------|------------------------|
B|--------------------|----------------|--------------------|------------------------|
G|--------------------|----------------|--------------------|------------------------|
D|--------------------|-0--------------|--------------------|-5--------7--------8----|
A|-----0---0----1-----|-0------0---0---|-----0---0----3-----|-3--------5--------6----|
D|-----0---0----1-----|-0------0---0---|-----0---0----3-----|------0--------0--------|


E|---------------------|----------------|--------------------|----------------|--------------------|
B|---------------------|----------------|--------------------|----------------|--------------------|
G|---------------------|----------------|--------------------|----------------|--------------------|
D|---------------------|-0--------------|--------------------|-0--------------|--------------------|
A|-1----1----1---3-----|-0------0---0---|-----0---0----3-----|-0------0---0---|-----0---0----1-----|
D|-1----1----1---3-----|-0------0---0---|-----0---0----3-----|-0------0---0---|-----0---0----1-----|


E|----------------|--------------------|------------------------|---------------------|
B|----------------|--------------------|------------------------|---------------------|
G|----------------|--------------------|------------------------|---------------------|
D|-0--------------|--------------------|-5--------7--------8----|---------------------|
A|-0------0---0---|-----0---0----3-----|-3--------5--------6----|-1----1----1---3-----|
D|-0------0---0---|-----0---0----3-----|------0--------0--------|-1----1----1---3-----|


E|-----------------------|--------------------|-----------------------|--------------------|
B|-----------------------|--------------------|-----------------------|--------------------|
G|-----------------------|--------------------|-----------------------|--------------------|
D|-1---------------------|--------------------|-5---------------------|--------------------|
A|-1-----1---1---1---1---|-------1---1--------|-5-----5---5---5---5---|-------5---5--------|
D|-1-----1---1---1---1---|-------1---1--------|-5-----5---5---5---5---|-------5---5--------|


E|-----------------------|--------------------|--------|-------------|-----------------------|
B|-----------------------|--------------------|--------|-------------|-----------------------|
G|-----------------------|--------------------|--------|-------------|-----------------------|
D|-0---------------------|--------------------|-5------|-7-----8-----|-1---------------------|
A|-0-----0---0---0---0---|-------0---0--------|-5------|-7-----8-----|-1-----1---1---1---1---|
D|-0-----0---0---0---0---|-------0---0--------|-5------|-7-----8-----|-1-----1---1---1---1---|


E|--------------------|-----------------------|--------------------|-----------------------|
B|--------------------|-----------------------|--------------------|-----------------------|
G|--------------------|-----------------------|--------------------|-----------------------|
D|--------------------|-5---------------------|--------------------|-0---------------------|
A|-------1---1--------|-5-----5---5---5---5---|-------5---5--------|-0-----0---0---0---0---|
D|-------1---1--------|-5-----5---5---5---5---|-------5---5--------|-0-----0---0---0---0---|


E|--------------------|--------|-------------|--------|---------------------|---------------------|
B|--------------------|--------|-------------|--------|---------------------|---------------------|
G|--------------------|--------|-------------|--------|---------------------|---------------------|
D|--------------------|-1------|-3-----1-----|-5------|---------------------|---------------------|
A|-------0---0--------|-1------|-3-----1-----|-5------|-5----5----5----5----|-5-------------------|
D|-------0---0--------|-1------|-3-----1-----|-5------|-5----5----5----5----|-5-------------------|


E|--------|--------|--------|--------|-----------------|--------|---------------------|
B|--------|--------|--------|--------|-----------------|--------|---------------------|
G|--------|--------|--------|-5------|-5---------------|--------|---------------------|
D|--------|-1------|-1------|-5------|-5-----3----2----|-5------|---------------------|
A|--------|-1------|-1------|-3------|-3-----1----0----|-5------|-5----5----5----5----|
D|--------|-1------|-1------|--------|-----------------|-5------|-5----5----5----5----|


E|---------------------|--------|--------|--------|--------|--------|---------------------|
B|---------------------|--------|--------|--------|--------|--------|---------------------|
G|---------------------|--------|--------|--------|--------|--------|---------------------|
D|---------------------|--------|-1------|-1------|-3------|-3------|---------------------|
A|-5-------------------|--------|-1------|-1------|-3------|-3------|-3----3----3----3----|
D|-5-------------------|--------|-1------|-1------|-3------|-3------|-3----3----3----3----|


E|---------------------|---------------------|---------------------|-----------------------|
B|---------------------|---------------------|---------------------|-----------------------|
G|---------------------|---------------------|---------------------|-----------------------|
D|---------------------|---------------------|---------------------|-0---------------------|
A|-3----3----3----3----|-3----3----3----3----|-3----3----3----3----|-0-----0---0---0-------|
D|-3----3----3----3----|-3----3----3----3----|-3----3----3----3----|-0-----0---0---0-------|


E|------------------------------|-----------------------|---------------------------|
B|------------------------------|-----------------------|---------------------------|
G|------------------------------|-----------------------|---------------------------|
D|------------------------------|-0---------------------|---------------------------|
A|------0---0---0---------------|-0-----0---0---8---8---|-6---8---6---5-------5-----|
D|------0---0---0---------------|-0-----0---0-----------|---------------------------|


E|-----------------------|------------------------------|-----------------------|
B|-----------------------|------------------------------|-----------------------|
G|-----------------------|------------------------------|-----------------------|
D|-0---------------------|------------------------------|-0---------------------|
A|-0-----0---0---0-------|------0---0---0---------------|-0-----0---0---8---8---|
D|-0-----0---0---0-------|------0---0---0---------------|-0-----0---0-----------|

|-------------------------------|
|-------------------------------|
|-------------------------------|
|---------------------5---------|
|-6---8---6---5-----------5-----|
|-------------------------------|



E|-----------------------|------------------------------|-----------------------|
B|-----------------------|------------------------------|-----------------------|
G|-----------------------|------------------------------|-----------------------|
D|-0---------------------|------------------------------|-0---------------------|
A|-0-----0---0---0-------|------0---0---0---------------|-0-----0---0---8---8---|
D|-0-----0---0---0-------|------0---0---0---------------|-0-----0---0-----------|

|---------------------------|
|---------------------------|
|---------------------------|
|---------------------------|
|-6---8---6---5-------5-----|
|---------------------------|



E|-----------------------|------------------------------|-----------------------|
B|-----------------------|------------------------------|-----------------------|
G|-----------------------|------------------------------|-----------------------|
D|-0---------------------|------------------------------|-0---------------------|
A|-0-----0---0---0-------|------0---0---0---------------|-0-----0---0---8---8---|
D|-0-----0---0---0-------|------0---0---0---------------|-0-----0---0-----------|

|-------------------------------|
|-------------------------------|
|-------------------------------|
|---------------------5---------|
|-6---8---6---5-----------5-----|
|-------------------------------|



E|-----------------------|--------------------|-----------------------|--------------------|
B|-----------------------|--------------------|-----------------------|--------------------|
G|-----------------------|--------------------|-----------------------|--------------------|
D|-1---------------------|--------------------|-5---------------------|--------------------|
A|-1-----1---1---1---1---|-------1---1--------|-5-----5---5---5---5---|-------5---5--------|
D|-1-----1---1---1---1---|-------1---1--------|-5-----5---5---5---5---|-------5---5--------|


E|-----------------------|--------------------|--------|-------------|-----------------------|
B|-----------------------|--------------------|--------|-------------|-----------------------|
G|-----------------------|--------------------|--------|-------------|-----------------------|
D|-0---------------------|--------------------|-5------|-7-----8-----|-1---------------------|
A|-0-----0---0---0---0---|-------0---0--------|-5------|-7-----8-----|-1-----1---1---1---1---|
D|-0-----0---0---0---0---|-------0---0--------|-5------|-7-----8-----|-1-----1---1---1---1---|


E|--------------------|-----------------------|--------------------|-----------------------|
B|--------------------|-----------------------|--------------------|-----------------------|
G|--------------------|-----------------------|--------------------|-----------------------|
D|--------------------|-5---------------------|--------------------|-0---------------------|
A|-------1---1--------|-5-----5---5---5---5---|-------5---5--------|-0-----0---0---0---0---|
D|-------1---1--------|-5-----5---5---5---5---|-------5---5--------|-0-----0---0---0---0---|


E|--------------------|--------|-------------|--------|--------|--------|--------|
B|--------------------|--------|-------------|--------|--------|--------|--------|
G|--------------------|--------|-------------|--------|--------|--------|--------|
D|--------------------|-1------|-3-----1-----|-5------|-5------|-5------|-5------|
A|-------0---0--------|-1------|-3-----1-----|-5------|-5------|-5------|-5------|
D|-------0---0--------|-1------|-3-----1-----|-5------|-5------|-5------|-5------|


E|--------|--------|--------|-------------|--------|--------|--------|--------|--------|
B|--------|--------|--------|-------------|--------|--------|--------|--------|--------|
G|--------|--------|-5------|-3-----2-----|--------|--------|--------|--------|--------|
D|-1------|-1------|-5------|-3-----2-----|-5------|-5------|-5------|-5------|-1------|
A|-1------|-1------|-3------|-1-----0-----|-5------|-5------|-5------|-5------|-1------|
D|-1------|-1------|--------|-------------|-5------|-5------|-5------|-5------|-1------|


E|--------|--------|-------------|-------------|-------------------------------|-------------|
B|--------|--------|-------------|-------------|-------------------------------|-------------|
G|--------|-5------|-3-----2-----|-------------|-------------------------------|-------------|
D|-1------|-5------|-3-----2-----|-0-----------|-------------------------------|-------------|
A|-1------|-3------|-1-----0-----|-0------8----|-6---8---6---5-------5----0----|-0------8----|
D|-1------|--------|-------------|-0-----------|--------------------------0----|-0-----------|


E|-------------------------------|----------------|---------------------------|------------------------|
B|-------------------------------|----------------|---------------------------|------------------------|
G|-------------------------------|----------------|---------------------------|------------------------|
D|---------------------5---------|-0--------------|---------------------------|-5--------7--------8----|
A|-6---8---6---5-----------5-----|-0------8---8---|-6---8---6---5-------5-----|-3--------5--------6----|
D|-------------------------------|-0--------------|---------------------------|------0--------0--------|


E|---------------------|-------------|-------------------------------|-------------|
B|---------------------|-------------|-------------------------------|-------------|
G|---------------------|-------------|-------------------------------|-------------|
D|---------------------|-0-----------|-------------------------------|-------------|
A|-1----1----1---3-----|-0------8----|-6---8---6---5-------5----0----|-0------8----|
D|-1----1----1---3-----|-0-----------|--------------------------0----|-0-----------|


E|-------------------------------|----------------|---------------------------|------------------------|
B|-------------------------------|----------------|---------------------------|------------------------|
G|-------------------------------|----------------|---------------------------|------------------------|
D|---------------------5---------|-0--------------|---------------------------|-5--------7--------8----|
A|-6---8---6---5-----------5-----|-0------8---8---|-6---8---6---5-------5-----|-3--------5--------6----|
D|-------------------------------|-0--------------|---------------------------|------0--------0--------|


E|---------------------|--------|--------|-------------|-------------|
B|---------------------|--------|--------|-------------|-------------|
G|---------------------|--------|--------|-------------|-------------|
D|---------------------|-1------|-1------|-3-----1-----|-0-----------|
A|-1----1----1---3-----|-1------|-1------|-3-----1-----|-0-----------|
D|-1----1----1---3-----|-1------|-1------|-3-----1-----|-0-----------|





Track 4: Rhythm 2

E|-----------------------|---------------------------------|--------|----------------|
B|-----------------------|---------------------------------|--------|----------------|
G|-----------------------|---------------------------------|--------|-5--------------|
D|-5---------------------|---------------------------------|-1------|-5--------------|
A|-5-----5---5---5---5---|-5-------------------------------|-1------|-3------8---7---|
D|-5-----5---5---5---5---|-5-------------------------------|-1------|--------8---7---|


E|-----------------------|---------------------------------|--------|--------|
B|-----------------------|---------------------------------|--------|--------|
G|-----------------------|---------------------------------|--------|--------|
D|-5---------------------|---------------------------------|-1------|-3------|
A|-5-----5---5---5---5---|-5-------------------------------|-1------|-3------|
D|-5-----5---5---5---5---|-5-------------------------------|-1------|-3------|

|---------------------------------|
|---------------------------------|
|---------------------------------|
|---------------------------------|
|-3---3---3---3---3---3---3---3---|
|-3---3---3---3---3---3---3---3---|


E|---------------------------------|-------------|-------------------------------|
B|---------------------------------|-------------|-------------------------------|
G|---------------------------------|-------------|-------------------------------|
D|---------------------------------|-0-----------|-------------------------------|
A|-3-------------------------------|-0------8----|-6---8---6---5-------5----0----|
D|-3-------------------------------|-0-----------|--------------------------0----|


E|-------------|-------------------------------|----------------|---------------------------|
B|-------------|-------------------------------|----------------|---------------------------|
G|-------------|-------------------------------|----------------|---------------------------|
D|-------------|---------------------5---------|-0--------------|---------------------------|
A|-0------8----|-6---8---6---5-----------5-----|-0------8---8---|-6---8---6---5-------5-----|
D|-0-----------|-------------------------------|-0--------------|---------------------------|


E|------------------------|---------------------|-------------|-------------------------------|
B|------------------------|---------------------|-------------|-------------------------------|
G|------------------------|---------------------|-------------|-------------------------------|
D|-5--------7--------8----|---------------------|-0-----------|-------------------------------|
A|-3--------5--------6----|-1----1----1---3-----|-0------8----|-6---8---6---5-------5----0----|
D|------0--------0--------|-1----1----1---3-----|-0-----------|--------------------------0----|


E|-------------|-------------------------------|----------------|---------------------------|
B|-------------|-------------------------------|----------------|---------------------------|
G|-------------|-------------------------------|----------------|---------------------------|
D|-------------|---------------------5---------|-0--------------|---------------------------|
A|-0------8----|-6---8---6---5-----------5-----|-0------8---8---|-6---8---6---5-------5-----|
D|-0-----------|-------------------------------|-0--------------|---------------------------|


E|------------------------|---------------------|--------|-----------------------|
B|------------------------|---------------------|--------|-----------------------|
G|------------------------|---------------------|--------|-----------------------|
D|-5--------7--------8----|---------------------|-1------|-1---------------------|
A|-3--------5--------6----|-1----1----1---3-----|-1------|-1-----1---1-----------|
D|------0--------0--------|-1----1----1---3-----|-1------|-1-----1---1-----------|


E|-----------------------|------------------------------|-----------------------|
B|-----------------------|------------------------------|-----------------------|
G|-----------------------|------------------------------|-----------------------|
D|-0---------------------|------------------------------|-0---------------------|
A|-0-----0---0---0-------|------0---0---0---------------|-0-----0---0---8---8---|
D|-0-----0---0---0-------|------0---0---0---------------|-0-----0---0-----------|

|---------------------------|
|---------------------------|
|---------------------------|
|---------------------------|
|-6---8---6---5-------5-----|
|---------------------------|



E|-----------------------|------------------------------|-----------------------|
B|-----------------------|------------------------------|-----------------------|
G|-----------------------|------------------------------|-----------------------|
D|-0---------------------|------------------------------|-0---------------------|
A|-0-----0---0---0-------|------0---0---0---------------|-0-----0---0---8---8---|
D|-0-----0---0---0-------|------0---0---0---------------|-0-----0---0-----------|

|-------------------------------|
|-------------------------------|
|-------------------------------|
|---------------------5---------|
|-6---8---6---5-----------5-----|
|-------------------------------|



E|-----------------------|------------------------------|-----------------------|
B|-----------------------|------------------------------|-----------------------|
G|-----------------------|------------------------------|-----------------------|
D|-0---------------------|------------------------------|-0---------------------|
A|-0-----0---0---0-------|------0---0---0---------------|-0-----0---0---8---8---|
D|-0-----0---0---0-------|------0---0---0---------------|-0-----0---0-----------|

|---------------------------|
|---------------------------|
|---------------------------|
|---------------------------|
|-6---8---6---5-------5-----|
|---------------------------|



E|-----------------------|------------------------------|-----------------------|
B|-----------------------|------------------------------|-----------------------|
G|-----------------------|------------------------------|-----------------------|
D|-0---------------------|------------------------------|-0---------------------|
A|-0-----0---0---0-------|------0---0---0---------------|-0-----0---0---8---8---|
D|-0-----0---0---0-------|------0---0---0---------------|-0-----0---0-----------|

|-------------------------------|
|-------------------------------|
|-------------------------------|
|---------------------5---------|
|-6---8---6---5-----------5-----|
|-------------------------------|



E|-----------------------|--------------------|-----------------------|--------------------|
B|-----------------------|--------------------|-----------------------|--------------------|
G|-----------------------|--------------------|-----------------------|--------------------|
D|-1---------------------|--------------------|-5---------------------|--------------------|
A|-1-----1---1---1---1---|-------1---1--------|-5-----5---5---5---5---|-------5---5--------|
D|-1-----1---1---1---1---|-------1---1--------|-5-----5---5---5---5---|-------5---5--------|


E|-----------------------|--------------------|--------|-------------|-----------------------|
B|-----------------------|--------------------|--------|-------------|-----------------------|
G|-----------------------|--------------------|--------|-------------|-----------------------|
D|-0---------------------|--------------------|-5------|-7-----8-----|-1---------------------|
A|-0-----0---0---0---0---|-------0---0--------|-5------|-7-----8-----|-1-----1---1---1---1---|
D|-0-----0---0---0---0---|-------0---0--------|-5------|-7-----8-----|-1-----1---1---1---1---|


E|--------------------|-----------------------|--------------------|-----------------------|
B|--------------------|-----------------------|--------------------|-----------------------|
G|--------------------|-----------------------|--------------------|-----------------------|
D|--------------------|-5---------------------|--------------------|-0---------------------|
A|-------1---1--------|-5-----5---5---5---5---|-------5---5--------|-0-----0---0---0---0---|
D|-------1---1--------|-5-----5---5---5---5---|-------5---5--------|-0-----0---0---0---0---|


E|--------------------|--------|-------------|--------|--------|--------|--------|
B|--------------------|--------|-------------|--------|--------|--------|--------|
G|--------------------|--------|-------------|--------|--------|--------|--------|
D|--------------------|-1------|-3-----1-----|-5------|-5------|-5------|-5------|
A|-------0---0--------|-1------|-3-----1-----|-5------|-5------|-5------|-5------|
D|-------0---0--------|-1------|-3-----1-----|-5------|-5------|-5------|-5------|


E|--------|--------|--------|-------------|-------------|-------------------------------|
B|--------|--------|--------|-------------|-------------|-------------------------------|
G|--------|--------|-5------|-3-----2-----|-------------|-------------------------------|
D|-1------|-1------|-5------|-3-----2-----|-0-----------|-------------------------------|
A|-1------|-1------|-3------|-1-----0-----|-0------8----|-6---8---6---5-------5----0----|
D|-1------|-1------|--------|-------------|-0-----------|--------------------------0----|


E|-------------|-------------------------------|----------------|---------------------------|
B|-------------|-------------------------------|----------------|---------------------------|
G|-------------|-------------------------------|----------------|---------------------------|
D|-------------|---------------------5---------|-0--------------|---------------------------|
A|-0------8----|-6---8---6---5-----------5-----|-0------8---8---|-6---8---6---5-------5-----|
D|-0-----------|-------------------------------|-0--------------|---------------------------|


E|------------------------|---------------------|-------------|-------------------------------|
B|------------------------|---------------------|-------------|-------------------------------|
G|------------------------|---------------------|-------------|-------------------------------|
D|-5--------7--------8----|---------------------|-0-----------|-------------------------------|
A|-3--------5--------6----|-1----1----1---3-----|-0------8----|-6---8---6---5-------5----0----|
D|------0--------0--------|-1----1----1---3-----|-0-----------|--------------------------0----|


E|-------------|-------------------------------|----------------|---------------------------|
B|-------------|-------------------------------|----------------|---------------------------|
G|-------------|-------------------------------|----------------|---------------------------|
D|-------------|---------------------5---------|-0--------------|---------------------------|
A|-0------8----|-6---8---6---5-----------5-----|-0------8---8---|-6---8---6---5-------5-----|
D|-0-----------|-------------------------------|-0--------------|---------------------------|


E|------------------------|---------------------|--------|-----------------------|
B|------------------------|---------------------|--------|-----------------------|
G|------------------------|---------------------|--------|-----------------------|
D|-5--------7--------8----|---------------------|-1------|-1---------------------|
A|-3--------5--------6----|-1----1----1---3-----|-1------|-1-----1---1-----------|
D|------0--------0--------|-1----1----1---3-----|-1------|-1-----1---1-----------|


E|-----------------------|------------------------------|-----------------------|
B|-----------------------|------------------------------|-----------------------|
G|-----------------------|------------------------------|-----------------------|
D|-0---------------------|------------------------------|-0---------------------|
A|-0-----0---0---0-------|------0---0---0---------------|-0-----0---0---8---8---|
D|-0-----0---0---0-------|------0---0---0---------------|-0-----0---0-----------|

|---------------------------|
|---------------------------|
|---------------------------|
|---------------------------|
|-6---8---6---5-------5-----|
|---------------------------|



E|-----------------------|------------------------------|-----------------------|
B|-----------------------|------------------------------|-----------------------|
G|-----------------------|------------------------------|-----------------------|
D|-0---------------------|------------------------------|-0---------------------|
A|-0-----0---0---0-------|------0---0---0---------------|-0-----0---0---8---8---|
D|-0-----0---0---0-------|------0---0---0---------------|-0-----0---0-----------|

|-------------------------------|
|-------------------------------|
|-------------------------------|
|---------------------5---------|
|-6---8---6---5-----------5-----|
|-------------------------------|



E|-----------------------|------------------------------|-----------------------|
B|-----------------------|------------------------------|-----------------------|
G|-----------------------|------------------------------|-----------------------|
D|-0---------------------|------------------------------|-0---------------------|
A|-0-----0---0---0-------|------0---0---0---------------|-0-----0---0---8---8---|
D|-0-----0---0---0-------|------0---0---0---------------|-0-----0---0-----------|

|---------------------------|
|---------------------------|
|---------------------------|
|---------------------------|
|-6---8---6---5-------5-----|
|---------------------------|



E|-----------------------|------------------------------|-----------------------|
B|-----------------------|------------------------------|-----------------------|
G|-----------------------|------------------------------|-----------------------|
D|-0---------------------|------------------------------|-0---------------------|
A|-0-----0---0---0-------|------0---0---0---------------|-0-----0---0---8---8---|
D|-0-----0---0---0-------|------0---0---0---------------|-0-----0---0-----------|

|-------------------------------|
|-------------------------------|
|-------------------------------|
|---------------------5---------|
|-6---8---6---5-----------5-----|
|-------------------------------|



E|-----------------------|--------------------|-----------------------|--------------------|
B|-----------------------|--------------------|-----------------------|--------------------|
G|-----------------------|--------------------|-----------------------|--------------------|
D|-1---------------------|--------------------|-5---------------------|--------------------|
A|-1-----1---1---1---1---|-------1---1--------|-5-----5---5---5---5---|-------5---5--------|
D|-1-----1---1---1---1---|-------1---1--------|-5-----5---5---5---5---|-------5---5--------|


E|-----------------------|--------------------|--------|-------------|-----------------------|
B|-----------------------|--------------------|--------|-------------|-----------------------|
G|-----------------------|--------------------|--------|-------------|-----------------------|
D|-0---------------------|--------------------|-5------|-7-----8-----|-1---------------------|
A|-0-----0---0---0---0---|-------0---0--------|-5------|-7-----8-----|-1-----1---1---1---1---|
D|-0-----0---0---0---0---|-------0---0--------|-5------|-7-----8-----|-1-----1---1---1---1---|


E|--------------------|-----------------------|--------------------|-----------------------|
B|--------------------|-----------------------|--------------------|-----------------------|
G|--------------------|-----------------------|--------------------|-----------------------|
D|--------------------|-5---------------------|--------------------|-0---------------------|
A|-------1---1--------|-5-----5---5---5---5---|-------5---5--------|-0-----0---0---0---0---|
D|-------1---1--------|-5-----5---5---5---5---|-------5---5--------|-0-----0---0---0---0---|


E|--------------------|--------|-------------|--------|--------|--------|--------|
B|--------------------|--------|-------------|--------|--------|--------|--------|
G|--------------------|--------|-------------|--------|--------|--------|--------|
D|--------------------|-1------|-3-----1-----|-5------|-5------|-5------|-5------|
A|-------0---0--------|-1------|-3-----1-----|-5------|-5------|-5------|-5------|
D|-------0---0--------|-1------|-3-----1-----|-5------|-5------|-5------|-5------|


E|--------|--------|--------|-------------|--------|--------|--------|--------|--------|
B|--------|--------|--------|-------------|--------|--------|--------|--------|--------|
G|--------|--------|-5------|-3-----2-----|--------|--------|--------|--------|--------|
D|-1------|-1------|-5------|-3-----2-----|-5------|-5------|-5------|-5------|-1------|
A|-1------|-1------|-3------|-1-----0-----|-5------|-5------|-5------|-5------|-1------|
D|-1------|-1------|--------|-------------|-5------|-5------|-5------|-5------|-1------|


E|--------|--------|-------------|----------------|--------------------|----------------|
B|--------|--------|-------------|----------------|--------------------|----------------|
G|--------|-5------|-3-----2-----|----------------|--------------------|----------------|
D|-1------|-5------|-3-----2-----|-0--------------|--------------------|-0--------------|
A|-1------|-3------|-1-----0-----|-0------0---0---|-----0---0----3-----|-0------0---0---|
D|-1------|--------|-------------|-0------0---0---|-----0---0----3-----|-0------0---0---|


E|--------------------|----------------|--------------------|------------------------|
B|--------------------|----------------|--------------------|------------------------|
G|--------------------|----------------|--------------------|------------------------|
D|--------------------|-0--------------|--------------------|-5--------7--------8----|
A|-----0---0----1-----|-0------0---0---|-----0---0----3-----|-3--------5--------6----|
D|-----0---0----1-----|-0------0---0---|-----0---0----3-----|------0--------0--------|


E|---------------------|----------------|--------------------|----------------|--------------------|
B|---------------------|----------------|--------------------|----------------|--------------------|
G|---------------------|----------------|--------------------|----------------|--------------------|
D|---------------------|-0--------------|--------------------|-0--------------|--------------------|
A|-1----1----1---3-----|-0------0---0---|-----0---0----3-----|-0------0---0---|-----0---0----1-----|
D|-1----1----1---3-----|-0------0---0---|-----0---0----3-----|-0------0---0---|-----0---0----1-----|


E|----------------|--------------------|------------------------|---------------------|
B|----------------|--------------------|------------------------|---------------------|
G|----------------|--------------------|------------------------|---------------------|
D|-0--------------|--------------------|-5--------7--------8----|---------------------|
A|-0------0---0---|-----0---0----3-----|-3--------5--------6----|-1----1----1---3-----|
D|-0------0---0---|-----0---0----3-----|------0--------0--------|-1----1----1---3-----|


E|-----------------------|--------------------|-----------------------|--------------------|
B|-----------------------|--------------------|-----------------------|--------------------|
G|-----------------------|--------------------|-----------------------|--------------------|
D|-1---------------------|--------------------|-5---------------------|--------------------|
A|-1-----1---1---1---1---|-------1---1--------|-5-----5---5---5---5---|-------5---5--------|
D|-1-----1---1---1---1---|-------1---1--------|-5-----5---5---5---5---|-------5---5--------|


E|-----------------------|--------------------|--------|-------------|-----------------------|
B|-----------------------|--------------------|--------|-------------|-----------------------|
G|-----------------------|--------------------|--------|-------------|-----------------------|
D|-0---------------------|--------------------|-5------|-7-----8-----|-1---------------------|
A|-0-----0---0---0---0---|-------0---0--------|-5------|-7-----8-----|-1-----1---1---1---1---|
D|-0-----0---0---0---0---|-------0---0--------|-5------|-7-----8-----|-1-----1---1---1---1---|


E|--------------------|-----------------------|--------------------|-----------------------|
B|--------------------|-----------------------|--------------------|-----------------------|
G|--------------------|-----------------------|--------------------|-----------------------|
D|--------------------|-5---------------------|--------------------|-0---------------------|
A|-------1---1--------|-5-----5---5---5---5---|-------5---5--------|-0-----0---0---0---0---|
D|-------1---1--------|-5-----5---5---5---5---|-------5---5--------|-0-----0---0---0---0---|


E|--------------------|--------|-------------|--------|---------------------|---------------------|
B|--------------------|--------|-------------|--------|---------------------|---------------------|
G|--------------------|--------|-------------|--------|---------------------|---------------------|
D|--------------------|-1------|-3-----1-----|-5------|---------------------|---------------------|
A|-------0---0--------|-1------|-3-----1-----|-5------|-5----5----5----5----|-5-------------------|
D|-------0---0--------|-1------|-3-----1-----|-5------|-5----5----5----5----|-5-------------------|


E|--------|--------|--------|--------|-----------------|--------|---------------------|
B|--------|--------|--------|--------|-----------------|--------|---------------------|
G|--------|--------|--------|-5------|-5---------------|--------|---------------------|
D|--------|-1------|-1------|-5------|-5-----3----2----|-5------|---------------------|
A|--------|-1------|-1------|-3------|-3-----1----0----|-5------|-5----5----5----5----|
D|--------|-1------|-1------|--------|-----------------|-5------|-5----5----5----5----|


E|---------------------|--------|--------|--------|--------|--------|---------------------|
B|---------------------|--------|--------|--------|--------|--------|---------------------|
G|---------------------|--------|--------|--------|--------|--------|---------------------|
D|---------------------|--------|-1------|-1------|-3------|-3------|---------------------|
A|-5-------------------|--------|-1------|-1------|-3------|-3------|-3----3----3----3----|
D|-5-------------------|--------|-1------|-1------|-3------|-3------|-3----3----3----3----|


E|---------------------|---------------------|---------------------|-----------------------|
B|---------------------|---------------------|---------------------|-----------------------|
G|---------------------|---------------------|---------------------|-----------------------|
D|---------------------|---------------------|---------------------|-0---------------------|
A|-3----3----3----3----|-3----3----3----3----|-3----3----3----3----|-0-----0---0---0-------|
D|-3----3----3----3----|-3----3----3----3----|-3----3----3----3----|-0-----0---0---0-------|


E|------------------------------|-----------------------|---------------------------|
B|------------------------------|-----------------------|---------------------------|
G|------------------------------|-----------------------|---------------------------|
D|------------------------------|-0---------------------|---------------------------|
A|------0---0---0---------------|-0-----0---0---8---8---|-6---8---6---5-------5-----|
D|------0---0---0---------------|-0-----0---0-----------|---------------------------|


E|-----------------------|------------------------------|-----------------------|
B|-----------------------|------------------------------|-----------------------|
G|-----------------------|------------------------------|-----------------------|
D|-0---------------------|------------------------------|-0---------------------|
A|-0-----0---0---0-------|------0---0---0---------------|-0-----0---0---8---8---|
D|-0-----0---0---0-------|------0---0---0---------------|-0-----0---0-----------|

|-------------------------------|
|-------------------------------|
|-------------------------------|
|---------------------5---------|
|-6---8---6---5-----------5-----|
|-------------------------------|


E|-----------------------|------------------------------|-----------------------|
B|-----------------------|------------------------------|-----------------------|
G|-----------------------|------------------------------|-----------------------|
D|-0---------------------|------------------------------|-0---------------------|
A|-0-----0---0---0-------|------0---0---0---------------|-0-----0---0---8---8---|
D|-0-----0---0---0-------|------0---0---0---------------|-0-----0---0-----------|

|---------------------------|
|---------------------------|
|---------------------------|
|---------------------------|
|-6---8---6---5-------5-----|
|---------------------------|


E|-----------------------|------------------------------|-----------------------|
B|-----------------------|------------------------------|-----------------------|
G|-----------------------|------------------------------|-----------------------|
D|-0---------------------|------------------------------|-0---------------------|
A|-0-----0---0---0-------|------0---0---0---------------|-0-----0---0---8---8---|
D|-0-----0---0---0-------|------0---0---0---------------|-0-----0---0-----------|

|-------------------------------|
|-------------------------------|
|-------------------------------|
|---------------------5---------|
|-6---8---6---5-----------5-----|
|-------------------------------|



E|-----------------------|--------------------|-----------------------|--------------------|
B|-----------------------|--------------------|-----------------------|--------------------|
G|-----------------------|--------------------|-----------------------|--------------------|
D|-1---------------------|--------------------|-5---------------------|--------------------|
A|-1-----1---1---1---1---|-------1---1--------|-5-----5---5---5---5---|-------5---5--------|
D|-1-----1---1---1---1---|-------1---1--------|-5-----5---5---5---5---|-------5---5--------|


E|-----------------------|--------------------|--------|-------------|-----------------------|
B|-----------------------|--------------------|--------|-------------|-----------------------|
G|-----------------------|--------------------|--------|-------------|-----------------------|
D|-0---------------------|--------------------|-5------|-7-----8-----|-1---------------------|
A|-0-----0---0---0---0---|-------0---0--------|-5------|-7-----8-----|-1-----1---1---1---1---|
D|-0-----0---0---0---0---|-------0---0--------|-5------|-7-----8-----|-1-----1---1---1---1---|


E|--------------------|-----------------------|--------------------|-----------------------|
B|--------------------|-----------------------|--------------------|-----------------------|
G|--------------------|-----------------------|--------------------|-----------------------|
D|--------------------|-5---------------------|--------------------|-0---------------------|
A|-------1---1--------|-5-----5---5---5---5---|-------5---5--------|-0-----0---0---0---0---|
D|-------1---1--------|-5-----5---5---5---5---|-------5---5--------|-0-----0---0---0---0---|


E|--------------------|--------|-------------|--------|--------|--------|--------|
B|--------------------|--------|-------------|--------|--------|--------|--------|
G|--------------------|--------|-------------|--------|--------|--------|--------|
D|--------------------|-1------|-3-----1-----|-5------|-5------|-5------|-5------|
A|-------0---0--------|-1------|-3-----1-----|-5------|-5------|-5------|-5------|
D|-------0---0--------|-1------|-3-----1-----|-5------|-5------|-5------|-5------|


E|--------|--------|--------|-------------|--------|--------|--------|--------|--------|
B|--------|--------|--------|-------------|--------|--------|--------|--------|--------|
G|--------|--------|-5------|-3-----2-----|--------|--------|--------|--------|--------|
D|-1------|-1------|-5------|-3-----2-----|-5------|-5------|-5------|-5------|-1------|
A|-1------|-1------|-3------|-1-----0-----|-5------|-5------|-5------|-5------|-1------|
D|-1------|-1------|--------|-------------|-5------|-5------|-5------|-5------|-1------|


E|--------|--------|-------------|-------------|-------------------------------|-------------|
B|--------|--------|-------------|-------------|-------------------------------|-------------|
G|--------|-5------|-3-----2-----|-------------|-------------------------------|-------------|
D|-1------|-5------|-3-----2-----|-0-----------|-------------------------------|-------------|
A|-1------|-3------|-1-----0-----|-0------8----|-6---8---6---5-------5----0----|-0------8----|
D|-1------|--------|-------------|-0-----------|--------------------------0----|-0-----------|


E|-------------------------------|----------------|---------------------------|------------------------|
B|-------------------------------|----------------|---------------------------|------------------------|
G|-------------------------------|----------------|---------------------------|------------------------|
D|---------------------5---------|-0--------------|---------------------------|-5--------7--------8----|
A|-6---8---6---5-----------5-----|-0------8---8---|-6---8---6---5-------5-----|-3--------5--------6----|
D|-------------------------------|-0--------------|---------------------------|------0--------0--------|


E|---------------------|-------------|-------------------------------|-------------|
B|---------------------|-------------|-------------------------------|-------------|
G|---------------------|-------------|-------------------------------|-------------|
D|---------------------|-0-----------|-------------------------------|-------------|
A|-1----1----1---3-----|-0------8----|-6---8---6---5-------5----0----|-0------8----|
D|-1----1----1---3-----|-0-----------|--------------------------0----|-0-----------|


E|-------------------------------|----------------|---------------------------|------------------------|
B|-------------------------------|----------------|---------------------------|------------------------|
G|-------------------------------|----------------|---------------------------|------------------------|
D|---------------------5---------|-0--------------|---------------------------|-5--------7--------8----|
A|-6---8---6---5-----------5-----|-0------8---8---|-6---8---6---5-------5-----|-3--------5--------6----|
D|-------------------------------|-0--------------|---------------------------|------0--------0--------|


E|---------------------|--------|--------|-------------|-------------|
B|---------------------|--------|--------|-------------|-------------|
G|---------------------|--------|--------|-------------|-------------|
D|---------------------|-1------|-1------|-3-----1-----|-0-----------|
A|-1----1----1---3-----|-1------|-1------|-3-----1-----|-0-----------|
D|-1----1----1---3-----|-1------|-1------|-3-----1-----|-0-----------|





Track 5: Bass

G|-----------------------|---------------------------------|--------|----------------|
D|-----------------------|---------------------------------|--------|----------------|
A|-----------------------|---------------------------------|--------|-3--------------|
D|-5-----5---5---5---5---|-5-------------------------------|-1------|--------8---7---|


G|-----------------------|---------------------------------|--------|--------|
D|-----------------------|---------------------------------|--------|--------|
A|-----------------------|---------------------------------|--------|--------|
D|-5-----5---5---5---5---|-5-------------------------------|-1------|-3------|

|---------------------------------|
|---------------------------------|
|---------------------------------|
|-3---3---3---3---3---3---3---3---|



G|---------------------------------|-------------|-------------------------------|
D|---------------------------------|-------------|-------------------------------|
A|---------------------------------|--------8----|-6---8---6---5-------5---------|
D|-3-------------------------------|-0-----------|--------------------------0----|


G|-------------|-------------------------------|----------------|-------------------------------|
D|-------------|---------------------5---------|----------------|-------------------------------|
A|--------8----|-6---8---6---5-----------5-----|--------8---8---|-6---8---6---5-------5---------|
D|-0-----------|-------------------------------|-0--------------|--------------------------0----|


G|------------------------|---------------------|-------------|-------------------------------|
D|------------------------|---------------------|-------------|-------------------------------|
A|-3--------5--------6----|---------------------|--------8----|-6---8---6---5-------5---------|
D|------0--------0--------|-1----1----1---3-----|-0-----------|--------------------------0----|


G|-------------|-------------------------------|----------------|-------------------------------|
D|-------------|---------------------5---------|----------------|-------------------------------|
A|--------8----|-6---8---6---5-----------5-----|--------8---8---|-6---8---6---5-------5---------|
D|-0-----------|-------------------------------|-0--------------|--------------------------0----|


G|------------------------|---------------------|--------|-----------------------|
D|------------------------|---------------------|--------|-----------------------|
A|-3--------5--------6----|---------------------|--------|-----------------------|
D|------0--------0--------|-1----1----1---3-----|-1------|-1-----1---1-----------|


G|-----------------------|------------------------------|--------------------|---------------------------|
D|-----------------------|------------------------------|--------------------|---------------------------|
A|-----------------------|------------------------------|---------------8----|-6---8---6---5-------5-----|
D|-0-----0---0---0-------|------0---0---0---------------|-0-----0---0--------|---------------------------|


G|-----------------------|------------------------------|--------------------|-------------------------------|
D|-----------------------|------------------------------|--------------------|---------------------5---------|
A|-----------------------|------------------------------|---------------8----|-6---8---6---5-----------5-----|
D|-0-----0---0---0-------|------0---0---0---------------|-0-----0---0--------|-------------------------------|


G|-----------------------|------------------------------|--------------------|---------------------------|
D|-----------------------|------------------------------|--------------------|---------------------------|
A|-----------------------|------------------------------|---------------8----|-6---8---6---5-------5-----|
D|-0-----0---0---0-------|------0---0---0---------------|-0-----0---0--------|---------------------------|


G|-----------------------|------------------------------|--------------------|-------------------------------|
D|-----------------------|------------------------------|--------------------|---------------------5---------|
A|-----------------------|------------------------------|---------------8----|-6---8---6---5-----------5-----|
D|-0-----0---0---0-------|------0---0---0---------------|-0-----0---0--------|-------------------------------|


G|-----------------------|-----------------------|-----------------------|-----------------------|
D|-----------------------|-----------------------|-----------------------|-----------------------|
A|-----------------------|-----------------------|-----------------------|-----------------------|
D|-1-----1---1---1---1---|-------1---1-----------|-5-----5---5---5---5---|-------5---5-----------|


G|-----------------------|-----------------------|--------|-------------|-----------------------|
D|-----------------------|-----------------------|--------|-------------|-----------------------|
A|-----------------------|-----------------------|--------|-------------|-----------------------|
D|-0-----0---0---0---0---|-------0---0-----------|-5------|-7-----8-----|-1-----1---1---1---1---|


G|-----------------------|-----------------------|-----------------------|-----------------------|
D|-----------------------|-----------------------|-----------------------|-----------------------|
A|-----------------------|-----------------------|-----------------------|-----------------------|
D|-------1---1-----------|-5-----5---5---5---5---|-------5---5-----------|-0-----0---0---0---0---|


G|-----------------------|--------|-------------|--------|--------|--------|-------------|
D|-----------------------|--------|-------------|--------|--------|--------|-------------|
A|-----------------------|--------|-------------|--------|--------|--------|-------------|
D|-------0---0-----------|-1------|-3-----1-----|-5------|-5------|-5------|-7-----8-----|


G|--------|--------|--------|-------------|-------------|-------------------------------|
D|--------|--------|--------|-------------|-------------|-------------------------------|
A|--------|--------|-3------|-1-----0-----|--------8----|-6---8---6---5-------5---------|
D|-1------|-1------|--------|-------------|-0-----------|--------------------------0----|


G|-------------|-------------------------------|----------------|-------------------------------|
D|-------------|---------------------5---------|----------------|-------------------------------|
A|--------8----|-6---8---6---5-----------5-----|--------8---8---|-6---8---6---5-------5---------|
D|-0-----------|-------------------------------|-0--------------|--------------------------0----|


G|------------------------|---------------------|-------------|-------------------------------|
D|------------------------|---------------------|-------------|-------------------------------|
A|-3--------5--------6----|---------------------|--------8----|-6---8---6---5-------5---------|
D|------0--------0--------|-1----1----1---3-----|-0-----------|--------------------------0----|


G|-------------|-------------------------------|----------------|-------------------------------|
D|-------------|---------------------5---------|----------------|-------------------------------|
A|--------8----|-6---8---6---5-----------5-----|--------8---8---|-6---8---6---5-------5---------|
D|-0-----------|-------------------------------|-0--------------|--------------------------0----|


G|------------------------|---------------------|--------|-----------------------|
D|------------------------|---------------------|--------|-----------------------|
A|-3--------5--------6----|---------------------|--------|-----------------------|
D|------0--------0--------|-1----1----1---3-----|-1------|-1-----1---1-----------|


G|-----------------------|------------------------------|--------------------|---------------------------|
D|-----------------------|------------------------------|--------------------|---------------------------|
A|-----------------------|------------------------------|---------------8----|-6---8---6---5-------5-----|
D|-0-----0---0---0-------|------0---0---0---------------|-0-----0---0--------|---------------------------|


G|-----------------------|------------------------------|--------------------|-------------------------------|
D|-----------------------|------------------------------|--------------------|---------------------5---------|
A|-----------------------|------------------------------|---------------8----|-6---8---6---5-----------5-----|
D|-0-----0---0---0-------|------0---0---0---------------|-0-----0---0--------|-------------------------------|


G|-----------------------|------------------------------|--------------------|---------------------------|
D|-----------------------|------------------------------|--------------------|---------------------------|
A|-----------------------|------------------------------|---------------8----|-6---8---6---5-------5-----|
D|-0-----0---0---0-------|------0---0---0---------------|-0-----0---0--------|---------------------------|


G|-----------------------|------------------------------|--------------------|-------------------------------|
D|-----------------------|------------------------------|--------------------|---------------------5---------|
A|-----------------------|------------------------------|---------------8----|-6---8---6---5-----------5-----|
D|-0-----0---0---0-------|------0---0---0---------------|-0-----0---0--------|-------------------------------|


G|-----------------------|-----------------------|-----------------------|-----------------------|
D|-----------------------|-----------------------|-----------------------|-----------------------|
A|-----------------------|-----------------------|-----------------------|-----------------------|
D|-1-----1---1---1---1---|-------1---1-----------|-5-----5---5---5---5---|-------5---5-----------|


G|-----------------------|-----------------------|--------|-------------|-----------------------|
D|-----------------------|-----------------------|--------|-------------|-----------------------|
A|-----------------------|-----------------------|--------|-------------|-----------------------|
D|-0-----0---0---0---0---|-------0---0-----------|-5------|-7-----8-----|-1-----1---1---1---1---|


G|-----------------------|-----------------------|-----------------------|-----------------------|
D|-----------------------|-----------------------|-----------------------|-----------------------|
A|-----------------------|-----------------------|-----------------------|-----------------------|
D|-------1---1-----------|-5-----5---5---5---5---|-------5---5-----------|-0-----0---0---0---0---|


G|-----------------------|--------|-------------|--------|--------|--------|-------------|
D|-----------------------|--------|-------------|--------|--------|--------|-------------|
A|-----------------------|--------|-------------|--------|--------|--------|-------------|
D|-------0---0-----------|-1------|-3-----1-----|-5------|-5------|-5------|-7-----8-----|


G|--------|--------|--------|-------------|--------|--------|--------|-------------|
D|--------|--------|--------|-------------|--------|--------|--------|-------------|
A|--------|--------|-3------|-1-----0-----|--------|--------|--------|-------------|
D|-1------|-1------|--------|-------------|-5------|-5------|-5------|-7-----8-----|


G|--------|--------|--------|-------------|----------------|--------------------|----------------|
D|--------|--------|--------|-------------|----------------|--------------------|----------------|
A|--------|--------|-3------|-1-----0-----|----------------|--------------------|----------------|
D|-1------|-1------|--------|-------------|-0------0---0---|-----0---0----3-----|-0------0---0---|


G|--------------------|----------------|--------------------|------------------------|
D|--------------------|----------------|--------------------|------------------------|
A|--------------------|----------------|--------------------|-3--------5--------6----|
D|-----0---0----1-----|-0------0---0---|-----0---0----3-----|------0--------0--------|


G|---------------------|----------------|--------------------|----------------|--------------------|
D|---------------------|----------------|--------------------|----------------|--------------------|
A|---------------------|----------------|--------------------|----------------|--------------------|
D|-1----1----1---3-----|-0------0---0---|-----0---0----3-----|-0------0---0---|-----0---0----1-----|


G|----------------|--------------------|------------------------|---------------------|
D|----------------|--------------------|------------------------|---------------------|
A|----------------|--------------------|-3--------5--------6----|---------------------|
D|-0------0---0---|-----0---0----3-----|------0--------0--------|-1----1----1---3-----|


G|-----------------------|-----------------------|-----------------------|-----------------------|
D|-----------------------|-----------------------|-----------------------|-----------------------|
A|-----------------------|-----------------------|-----------------------|-----------------------|
D|-1-----1---1---1---1---|-------1---1-----------|-5-----5---5---5---5---|-------5---5-----------|


G|-----------------------|-----------------------|--------|-------------|-----------------------|
D|-----------------------|-----------------------|--------|-------------|-----------------------|
A|-----------------------|-----------------------|--------|-------------|-----------------------|
D|-0-----0---0---0---0---|-------0---0-----------|-5------|-7-----8-----|-1-----1---1---1---1---|


G|-----------------------|-----------------------|-----------------------|-----------------------|
D|-----------------------|-----------------------|-----------------------|-----------------------|
A|-----------------------|-----------------------|-----------------------|-----------------------|
D|-------1---1-----------|-5-----5---5---5---5---|-------5---5-----------|-0-----0---0---0---0---|


G|-----------------------|--------|-------------|--------|---------------------|---------------------|
D|-----------------------|--------|-------------|--------|---------------------|---------------------|
A|-----------------------|--------|-------------|--------|---------------------|---------------------|
D|-------0---0-----------|-1------|-3-----1-----|-5------|-5----5----5----5----|-5-------------------|


G|--------|--------|--------|--------|-----------------|--------|---------------------|
D|--------|--------|--------|--------|-----------------|--------|---------------------|
A|--------|--------|--------|-3------|-3-----1----0----|--------|---------------------|
D|--------|-1------|-1------|--------|-----------------|-5------|-5----5----5----5----|


G|---------------------|--------|--------|--------|--------|--------|---------------------|
D|---------------------|--------|--------|--------|--------|--------|---------------------|
A|---------------------|--------|--------|--------|--------|--------|---------------------|
D|-5-------------------|--------|-1------|-1------|-3------|-3------|-3----3----3----3----|


G|---------------------|---------------------|---------------------|-----------------------|
D|---------------------|---------------------|---------------------|-----------------------|
A|---------------------|---------------------|---------------------|-----------------------|
D|-3----3----3----3----|-3----3----3----3----|-3----3----3----3----|-0-----0---0---0-------|


G|------------------------------|--------------------|---------------------------|
D|------------------------------|--------------------|---------------------------|
A|------------------------------|---------------8----|-6---8---6---5-------5-----|
D|------0---0---0---------------|-0-----0---0--------|---------------------------|


G|-----------------------|------------------------------|--------------------|-------------------------------|
D|-----------------------|------------------------------|--------------------|---------------------5---------|
A|-----------------------|------------------------------|---------------8----|-6---8---6---5-----------5-----|
D|-0-----0---0---0-------|------0---0---0---------------|-0-----0---0--------|-------------------------------|


G|-----------------------|------------------------------|--------------------|---------------------------|
D|-----------------------|------------------------------|--------------------|---------------------------|
A|-----------------------|------------------------------|---------------8----|-6---8---6---5-------5-----|
D|-0-----0---0---0-------|------0---0---0---------------|-0-----0---0--------|---------------------------|


G|-----------------------|------------------------------|--------------------|-------------------------------|
D|-----------------------|------------------------------|--------------------|---------------------5---------|
A|-----------------------|------------------------------|---------------8----|-6---8---6---5-----------5-----|
D|-0-----0---0---0-------|------0---0---0---------------|-0-----0---0--------|-------------------------------|


G|-----------------------|-----------------------|-----------------------|-----------------------|
D|-----------------------|-----------------------|-----------------------|-----------------------|
A|-----------------------|-----------------------|-----------------------|-----------------------|
D|-1-----1---1---1---1---|-------1---1-----------|-5-----5---5---5---5---|-------5---5-----------|


G|-----------------------|-----------------------|--------|-------------|-----------------------|
D|-----------------------|-----------------------|--------|-------------|-----------------------|
A|-----------------------|-----------------------|--------|-------------|-----------------------|
D|-0-----0---0---0---0---|-------0---0-----------|-5------|-7-----8-----|-1-----1---1---1---1---|


G|-----------------------|-----------------------|-----------------------|-----------------------|
D|-----------------------|-----------------------|-----------------------|-----------------------|
A|-----------------------|-----------------------|-----------------------|-----------------------|
D|-------1---1-----------|-5-----5---5---5---5---|-------5---5-----------|-0-----0---0---0---0---|


G|-----------------------|--------|-------------|--------|--------|--------|-------------|
D|-----------------------|--------|-------------|--------|--------|--------|-------------|
A|-----------------------|--------|-------------|--------|--------|--------|-------------|
D|-------0---0-----------|-1------|-3-----1-----|-5------|-5------|-5------|-7-----8-----|


G|--------|--------|--------|-------------|--------|--------|--------|-------------|
D|--------|--------|--------|-------------|--------|--------|--------|-------------|
A|--------|--------|-3------|-1-----0-----|--------|--------|--------|-------------|
D|-1------|-1------|--------|-------------|-5------|-5------|-5------|-7-----8-----|


G|--------|--------|--------|-------------|-------------|-------------------------------|
D|--------|--------|--------|-------------|-------------|-------------------------------|
A|--------|--------|-3------|-1-----0-----|--------8----|-6---8---6---5-------5---------|
D|-1------|-1------|--------|-------------|-0-----------|--------------------------0----|


G|-------------|-------------------------------|----------------|-------------------------------|
D|-------------|---------------------5---------|----------------|-------------------------------|
A|--------8----|-6---8---6---5-----------5-----|--------8---8---|-6---8---6---5-------5---------|
D|-0-----------|-------------------------------|-0--------------|--------------------------0----|


G|------------------------|---------------------|-------------|-------------------------------|
D|------------------------|---------------------|-------------|-------------------------------|
A|-3--------5--------6----|---------------------|--------8----|-6---8---6---5-------5---------|
D|------0--------0--------|-1----1----1---3-----|-0-----------|--------------------------0----|


G|-------------|-------------------------------|----------------|-------------------------------|
D|-------------|---------------------5---------|----------------|-------------------------------|
A|--------8----|-6---8---6---5-----------5-----|--------8---8---|-6---8---6---5-------5---------|
D|-0-----------|-------------------------------|-0--------------|--------------------------0----|


G|------------------------|---------------------|--------|--------|-------------|-------------|
D|------------------------|---------------------|--------|--------|-------------|-------------|
A|-3--------5--------6----|---------------------|--------|--------|-------------|-------------|
D|------0--------0--------|-1----1----1---3-----|-1------|-1------|-3-----1-----|-0-----------|


Track 7: Solo


E|--------|--------|--------|--------|--------|--------|--------|--------|-22-----|
B|--------|--------|--------|--------|--------|--------|--------|--------|-15-----|
G|--------|--------|--------|--------|--------|--------|--------|--------|--------|
D|--------|--------|--------|--------|--------|--------|--------|--------|--------|
A|--------|--------|--------|--------|--------|--------|--------|--------|--------|
D|--------|--------|--------|--------|--------|--------|--------|--------|--------|


E|--------|-13-----|-13-----|-------------------------------------|-------------------------------------|
B|-15-----|--------|--------|-15--15--10--------15--15--10--------|-15--15--10--------15--15--10--------|
G|--------|--------|--------|------------10----------------10-----|------------10----------------10-----|
D|--------|--------|--------|---------------12----------------12--|---------------12----------------12--|
A|--------|--------|--------|-------------------------------------|-------------------------------------|
D|--------|--------|--------|-------------------------------------|-------------------------------------|


E|-----------------------------------------|----------------------|--------|--------|
B|-15--10----------------------------------|----------------------|--------|--------|
G|--------10-----13--10----------10--------|-7--------------------|-7------|-7------|
D|-----------12---------12-12--------7-----|-----7----------------|-7------|-7------|
A|--------------------------------------8--|--------8--4----5-----|--------|--------|
D|-----------------------------------------|----------------------|--------|--------|


E|--------|--------|-------------13-12-------------------------------|
B|--------|--------|----------15-------15-11-------------------------|
G|-14-----|--------|-------14----------------14-13-12----------12-14-|
D|-12-----|-12-----|----12----------------------------15-12-15-------|
A|--------|-5------|-12----------------------------------------------|
D|--------|--------|-------------------------------------------------|

|-------13-15-17-15-13----------------------------|
|----15----------------15-11----------------------|
|-14-------------------------14-13-12-------------|
|-------------------------------------14-12----12-|
|-------------------------------------------13----|
|-------------------------------------------------|


E|----------13-17-20-17-13-------------------------|-------------------------------------------------|
B|-------15----------------15----------------------|-------------------------------------------------|
G|----14----------------------14-------------------|-------------------------------------------------|
D|-15----------------------------15-14-13-12-------|-13-------------13-------------15----------13-15-|
A|-------------------------------------------15-12-|----13-12-13-15----13-12-13-15----15-13-15-------|
D|-------------------------------------------------|-------------------------------------------------|


E|--------|-------------|--------|-------------|----------------|----------------|
B|-16-----|-16----16----|-15-----|-15----------|----------------|-13-------------|
G|--------|-------------|--------|-------14----|-14-----14--15--|--------15--14--|
D|--------|-------------|--------|-------------|----------------|----------------|
A|--------|-------------|--------|-------------|----------------|----------------|
D|--------|-------------|--------|-------------|----------------|----------------|


E|-----------------------|-----------------13---11------|-11----11--11--13--15---|
B|-----------------------|-13-----------------------15--|------------------------|
G|-15--14--12----14--15--|-----15--14--15---------------|------------------------|
D|-----------------------|------------------------------|------------------------|
A|-----------------------|------------------------------|------------------------|
D|-----------------------|------------------------------|------------------------|


E|-15----17----|-15--------15--17--18---|-18----18----|-17-----14--17--|-15--14--------------------------|
B|-------------|-------15---------------|-------------|----------------|---------15----------------------|
G|-------------|------------------------|-------------|----------------|-------------15--14--15--14--15--|
D|-------------|------------------------|-------------|----------------|---------------------------------|
A|-------------|------------------------|-------------|----------------|---------------------------------|
D|-------------|------------------------|-------------|----------------|---------------------------------|


E|---------------15--17--|-18--17--15----------------------|--------|

            
            
Suggest correction
Creating personal tab
Creating personal tab
You can edit any tab online and save it as your Personal.

You can edit, replace or remove any tab part or add personal notes – all changes will be seen only by you.

Personal tabs can be accessed anytime from any device, even offline.
Learn more »
Give kudos to tab author, rate the tab!
1 2 3 4 5
comments
print report bad tab
guest
You may want to rate the tab now too:
select rating
Wanna post a correction for this tab? Suggest correction