Oops, an error
Loading. Please wait.

This Means War tab

version 4
version 4

Whole song

Interactive

82,474 views 48 this week
3 commentsread comments
1 2 3 4 5
x 16
add to favorites
×
Save as Personal and add changes to this tab that will be seen only by you. Learn more ›
×
You can save this tab as Personal to edit and correct it or add notes. All changes will be seen only by you. Learn more »
launch autoscroll
font size
0
reset
how to read this tab
guitar tuner
edit
Autoscroll
slow
fast
+/-
esc
set tempo
stop
Artist: Avenged Sevenfold
Song:   This Means War
Album:  Hail To The King
Tuning: drop D

[Intro]
  GTR 1:
           PM.......                           PM..
E|------------------------|------------------------|
B|------------------------|------------------------|
G|------------------------|------------------------|
D|--5---------------------|--1--------10-----------|
A|--5-----5-5-5-5-5-------|--1--------10------8-7--|
D|--5-----5-5-5-5-5-------|--1--------10------8-7--|
    
          PM.......
E|------------------------|------------------------|
B|------------------------|------------------------|
G|------------------------|------------------------|
D|--5---------------------|--1---------3-----------|
A|--5-----5-5-5-5-5-------|--1---------3-----------|
D|--5-----5-5-5-5-5-------|--1---------3-----------|
    
    PM...............
E|------------------------||
B|------------------------||
G|------------------------||
D|------------------------||
A|--3-3-3-3-3-3-3-3-3-----||
D|--3-3-3-3-3-3-3-3-3-----||

  GTR 2:
E|-----10----------8----------10----11-11-10-8--|    |-----8-8~~--||
B|--11----11----11---11----11----11-------------|    |--11--------||
G|----------------------------------------------| x4 |------------||
D|----------------------------------------------|    |------------||
A|----------------------------------------------|    |------------||
D|----------------------------------------------|    |------------||

  GTR 3:
E|----6--------5--------6----8-8-6-5--|    |----5-5~~--||
B|--8---8----8---8----8---8-----------|    |--8--------||
G|------------------------------------| x4 |-----------||
D|------------------------------------|    |-----------||
A|------------------------------------|    |-----------||
D|------------------------------------|    |-----------||

[Main riff]
                            PM
E|------------------------|------------------------|
B|------------------------|------------------------|
G|------------------------|------------------------|
D|--0------------------3--|--0---------------------|
A|--0--8-8-6h8p6-5~5~--3--|--0--8-8-6h8p6-5-10-5~--|
D|--0------------------3--|--0---------------------|
    
                             PM  PM  PM    PM
E|------------------------|------------------------||
B|------------------------|------------------------||
G|------------------------|------------------------|| x2
D|--0---------------------|----5---7---8------0-3--||
A|--0--8-8-6h8p6-5~5~-----|----3---5---6---x--0-3--||
D|--0---------------------|--0---0---0-----x--0-3--||
    
E|-----||
B|-----||
G|-----||
D|--1--||
A|--1--||
D|--1--||

[Verse]
            PM...    PM...             PM.
E|------------------------|---------------------------|
B|------------------------|---------------------------|
G|------------------------|---------------------------|
D|--0--0-0-0----0-0-0-----|--0------------------------|
A|--0--0-0-0----0-0-0-----|--0------8-8-6h8p6-5~5~----|
D|--0--0-0-0----0-0-0-----|--0--0-0-------------------|
    
       PM...    PM...             PM.
E|------------------------|---------------------------||
B|------------------------|---------------------------||
G|------------------------|---------------------------|| x2
D|--0--0-0-0----0-0-0-----|--0------------------5-----||
A|--0--0-0-0----0-0-0-----|--0------8-8-6h8p6-5---5~--||
D|--0--0-0-0----0-0-0-----|--0--0-0-------------------||

[Pre-Chorus]
  GTR 1:
            PM.....      PM.         PM.....      PM.
E|------------------------|------------------------|
B|------------------------|------------------------|
G|------------------------|------------------------|
D|--1--1-1-1-1------1-1---|--5--5-5-5-5------5-5---|
A|--1--1-1-1-1------1-1---|--5--5-5-5-5------5-5---|
D|--1--1-1-1-1------1-1---|--5--5-5-5-5------5-5---|
    
             PM.....      PM.             PM.
E|------------------------|------------------------||
B|------------------------|------------------------||
G|------------------------|------------------------||
D|--0--0-0-0-0------0-0---|--5------5-5---7---8----||
A|--0--0-0-0-0------0-0---|--5------5-5---7---8----||
D|--0--0-0-0-0------0-0---|--5------5-5---7---8----||
    
        PM.....      PM.         PM.....      PM.
E|------------------------|------------------------|
B|------------------------|------------------------|
G|------------------------|------------------------|
D|--1--1-1-1-1------1-1---|--5--5-5-5-5------5-5---|
A|--1--1-1-1-1------1-1---|--5--5-5-5-5------5-5---|
D|--1--1-1-1-1------1-1---|--5--5-5-5-5------5-5---|
    
       PM.....      PM.
E|------------------------|------------------------||
B|------------------------|------------------------||
G|------------------------|------------------------||
D|--0--0-0-0-0------0-0---|--1------------3---1----||
A|--0--0-0-0-0------0-0---|--1------------3---1----||
D|--0--0-0-0-0------0-0---|--1------------3---1----||

  GTR 2:
E|--11------11------|--11------13------|--10------10------|--10------11------|
B|------11------11--|------11------11--|------11------11--|------11------11--|
G|------------------|------------------|------------------|------------------|
D|------------------|------------------|------------------|------------------|
A|------------------|------------------|------------------|------------------|
D|------------------|------------------|------------------|------------------|

E|--10------10------|--10------11------|--10------10------|--10------13------||
B|------10------10--|------10------10--|------11------11--|------11------11--||
G|------------------|------------------|------------------|------------------||
D|------------------|------------------|------------------|------------------||
A|------------------|------------------|------------------|------------------||
D|------------------|------------------|------------------|------------------||

E|--11------11------|--11------13------|--10------10------|--10------11------|
B|------11------11--|------11------11--|------11------11--|------11------11--|
G|------------------|------------------|------------------|------------------|
D|------------------|------------------|------------------|------------------|
A|------------------|------------------|------------------|------------------|
D|------------------|------------------|------------------|------------------|

E|--10------10------|--10------11------|--11------11------|--13------11------||
B|------10------10--|------10------10--|------11------11--|------11------11--||
G|------------------|------------------|------------------|------------------||
D|------------------|------------------|------------------|------------------||
A|------------------|------------------|------------------|------------------||
D|------------------|------------------|------------------|------------------||

[Chorus]
  GTR 1:
E|------------------------|------------------------|
B|------------------------|------------------------|
G|------------------------|------------------------|
D|--5---------------------|--1---------------------|
A|--5---------------------|--1---------------------|
D|--5---------------------|--1---------------------|
    
E|------------------------||
B|------------------------||
G|------------------------||
D|--10-----------8---7----||
A|--10-----------8---7----||
D|--10-----------8---7----||

  GTR 2:
E|-----10----------8----------10----11-11-10-8--||
B|--11----11----11---11----11----11-------------||
G|----------------------------------------------|| x2
D|----------------------------------------------||
A|----------------------------------------------||
D|----------------------------------------------||

  GTR 3:
E|----6--------5--------6----8-8-6-5--||
B|--8---8----8---8----8---8-----------||
G|------------------------------------|| x2
D|------------------------------------||
A|------------------------------------||
D|------------------------------------||

[Main riff] x2
                            PM
E|------------------------|------------------------|
B|------------------------|------------------------|
G|------------------------|------------------------|
D|--0------------------3--|--0---------------------|
A|--0--8-8-6h8p6-5~5~--3--|--0--8-8-6h8p6-5-10-5~--|
D|--0------------------3--|--0---------------------|
    
                             PM  PM  PM    PM
E|------------------------|------------------------||
B|------------------------|------------------------||
G|------------------------|------------------------|| x2
D|--0---------------------|----5---7---8------0-3--||
A|--0--8-8-6h8p6-5~5~-----|----3---5---6---x--0-3--||
D|--0---------------------|--0---0---0-----x--0-3--||
    
E|-----||
B|-----||
G|-----||
D|--1--||
A|--1--||
D|--1--||

[Verse]
            PM...    PM...             PM.
E|------------------------|---------------------------|
B|------------------------|---------------------------|
G|------------------------|---------------------------|
D|--0--0-0-0----0-0-0-----|--0------------------------|
A|--0--0-0-0----0-0-0-----|--0------8-8-6h8p6-5~5~----|
D|--0--0-0-0----0-0-0-----|--0--0-0-------------------|
    
       PM...    PM...             PM.
E|------------------------|---------------------------||
B|------------------------|---------------------------||
G|------------------------|---------------------------|| x2
D|--0--0-0-0----0-0-0-----|--0------------------5-----||
A|--0--0-0-0----0-0-0-----|--0------8-8-6h8p6-5---5~--||
D|--0--0-0-0----0-0-0-----|--0--0-0-------------------||

[Pre-Chorus]
GTR 1:
            PM.....      PM.         PM.....      PM.
E|------------------------|------------------------|
B|------------------------|------------------------|
G|------------------------|------------------------|
D|--1--1-1-1-1------1-1---|--5--5-5-5-5------5-5---|
A|--1--1-1-1-1------1-1---|--5--5-5-5-5------5-5---|
D|--1--1-1-1-1------1-1---|--5--5-5-5-5------5-5---|
    
             PM.....      PM.             PM.
E|------------------------|------------------------||
B|------------------------|------------------------||
G|------------------------|------------------------||
D|--0--0-0-0-0------0-0---|--5------5-5---7---8----||
A|--0--0-0-0-0------0-0---|--5------5-5---7---8----||
D|--0--0-0-0-0------0-0---|--5------5-5---7---8----||
    
        PM.....      PM.         PM.....      PM.
E|------------------------|------------------------|
B|------------------------|------------------------|
G|------------------------|------------------------|
D|--1--1-1-1-1------1-1---|--5--5-5-5-5------5-5---|
A|--1--1-1-1-1------1-1---|--5--5-5-5-5------5-5---|
D|--1--1-1-1-1------1-1---|--5--5-5-5-5------5-5---|
    
       PM.....      PM.
E|------------------------|------------------------||
B|------------------------|------------------------||
G|------------------------|------------------------||
D|--0--0-0-0-0------0-0---|--1------------3---1----||
A|--0--0-0-0-0------0-0---|--1------------3---1----||
D|--0--0-0-0-0------0-0---|--1------------3---1----||

  GTR 2:
E|--11------11------|--11------13------|--10------10------|--10------11------|
B|------11------11--|------11------11--|------11------11--|------11------11--|
G|------------------|------------------|------------------|------------------|
D|------------------|------------------|------------------|------------------|
A|------------------|------------------|------------------|------------------|
D|------------------|------------------|------------------|------------------|

E|--10------10------|--10------11------|--10------10------|--10------13------||
B|------10------10--|------10------10--|------11------11--|------11------11--||
G|------------------|------------------|------------------|------------------||
D|------------------|------------------|------------------|------------------||
A|------------------|------------------|------------------|------------------||
D|------------------|------------------|------------------|------------------||

E|--11------11------|--11------13------|--10------10------|--10------11------|
B|------11------11--|------11------11--|------11------11--|------11------11--|
G|------------------|------------------|------------------|------------------|
D|------------------|------------------|------------------|------------------|
A|------------------|------------------|------------------|------------------|
D|------------------|------------------|------------------|------------------|

E|--10------10------|--10------11------|--11------11------|--13------11------||
B|------10------10--|------10------10--|------11------11--|------11------11--||
G|------------------|------------------|------------------|------------------||
D|------------------|------------------|------------------|------------------||
A|------------------|------------------|------------------|------------------||
D|------------------|------------------|------------------|------------------||

[Chorus] x2
  GTR 1:
E|------------------------|------------------------|
B|------------------------|------------------------|
G|------------------------|------------------------|
D|--5---------------------|--1---------------------|
A|--5---------------------|--1---------------------|
D|--5---------------------|--1---------------------|
    
E|------------------------||
B|------------------------||
G|------------------------||
D|--10-----------8---7----||
A|--10-----------8---7----||
D|--10-----------8---7----||

  GTR 2:
E|-----10----------8----------10----11-11-10-8--||
B|--11----11----11---11----11----11-------------||
G|----------------------------------------------|| x2
D|----------------------------------------------||
A|----------------------------------------------||
D|----------------------------------------------||

  GTR 3:
E|----6--------5--------6----8-8-6-5--||
B|--8---8----8---8----8---8-----------||
G|------------------------------------|| x2
D|------------------------------------||
A|------------------------------------||
D|------------------------------------||

[Solo 1]
          PM  PM.  PM.             PM  PM.  PM.
E|------------------------|------------------------|
B|------------------------|------------------------|
G|------------------------|------------------------|
D|--0----0---0-0--0-0---3-|--0----0---0-0--0-0---1-|
A|--0----0---0-0--0-0---3-|--0----0---0-0--0-0---1-|
D|--0----0---0-0--0-0---3-|--0----0---0-0--0-0---1-|

           PM  PM.  PM.        PM  PM  PM    PM
E|------------------------|------------------------||
B|------------------------|------------------------||
G|------------------------|------------------------|| x2
D|--0----0---0-0--0-0---3-|----5---7---8------0-3--||
A|--0----0---0-0--0-0---3-|----3---5---6---0--0-3--||
D|--0----0---0-0--0-0---3-|--0---0---0-----0--0-3--||

[SOLO 2] (with PRE-CHORUS rhythm)
[BRIDGE] (with INTRO rythm & solos - last part has more than 9 times - note F)
[Verse]
[Pre-Chorus]
[CHORUS]     x2

[MAIN RIFF]  x2
E|------------------------||
B|------------------------||
G|------------------------||
D|--1------------3--1--0--||
A|--1------------3--1--0--||
D|--1------------3--1--0--||

100% correct rhythm and notes!
Had to post as I saw many tabs that were not entirely accurate.
Hope you enjoy it (solo comes next as I'm finishing tabs)

Check my other A7X tabs

************************************

| PM  Palm mute
| ~   Vibrato
| h   Hammer-on
| p   Pull-off
| x   Dead note

************************************

            
            
Suggest correction
Creating personal tab
Creating personal tab
You can edit any tab online and save it as your Personal.

You can edit, replace or remove any tab part or add personal notes – all changes will be seen only by you.

Personal tabs can be accessed anytime from any device, even offline.
Learn more »
comments
print report bad tab
3 comments total.
+1 reply
jordon.chamberl 66 Sep 09, 2013 07:43 PM

not bad. lead harmonies sound perfect.

+1 reply
Yakisobayum567 20 Sep 13, 2013 08:26 AM

I think for the verse Riff at least, at the five part there's a trill if you listen closely between the five and the six.

+1 reply
Audible Warfare 806 Nov 27, 2013 10:04 AM

WE NEED THE SOLO! Good tab though.

guest
You may want to rate the tab now too:
select rating
Wanna post a correction for this tab? Suggest correction