Oops, an error
Loading. Please wait.

This Means War tab

version 6
version 6

Whole song

Interactive

457 views 1 this week
4 commentsread comments
1 2 3 4 5
2 more votes to show rating
add to favorites
×
Save as Personal and add changes to this tab that will be seen only by you. Learn more ›
×
You can save this tab as Personal to edit and correct it or add notes. All changes will be seen only by you. Learn more »
launch autoscroll
font size
0
reset
how to read this tab
guitar tuner
edit
Autoscroll
slow
fast
+/-
esc
set tempo
stop
About this tab version
Just a different way to play. Mainly the chorus and Intro is played on different strings to sound closer to the melody. Was this info helpful? Yes No
[Intro]

e|---------------------------------------------------------------------------| x3
B|----------11--------------10-------------11--------13--13--11--10----------|
G|--12--12------12--12--12------12--12--12-----12----------------------------|
E|---------------------------------------------------------------------------|
A|---------------------------------------------------------------------------|
D|---------------------------------------------------------------------------|

e|------------------------------------------------------------------------------|
B|----------11--------------10-------------11--------13--13--11--10------10--10-|
G|--12--12------12--12--12------12--12--12-----12--------------------12---------|
E|------------------------------------------------------------------------------|
A|------------------------------------------------------------------------------|
D|------------------------------------------------------------------------------|


[Pre-Verse]

e|---------------------------------------------------------------------------|
B|---------------------------------------------------------------------------|
G|---------------------------------------------------------------------------|
D|--0---------------------0---------------5----------------------------------|
A|--0--8--8--6h8p6--6--6--0--8--8--6h8p6-----5-------------------------------|
D|---------------------------------------------------------------------------|
                                                                              } x2
e|---------------------------------------------------------------------------|
B|---------------------------------------------------------------------------|
G|---------------------------------------------------------------------------|
D|--0--------------------5--7--8--1--1--3--(1)-------------------------------|
A|--0--8--8--6h8p6--6----3--5--6--1--1--3--(1)-------------------------------|
D|---------------------------------------------------------------------------|
                                           (second time through)

[Verse]

e|---------------------------------------------------------------------------|
B|---------------------------------------------------------------------------|
G|---------------------------------------------------------------------------|
D|---------------------------------------------------------------------------|
A|--0--0-0-0--0-0-0--0--0-0--8--8--6h8p6--5--5-------------------------------|
D|--0--0-0-0--0-0-0--0--0-0--------------------------------------------------|
       x x x  x x x     x x                                                   } x2
e|---------------------------------------------------------------------------|
B|---------------------------------------------------------------------------|
G|---------------------------------------------------------------------------|
D|----------------------------------------5----------------------------------|
A|--0--0-0-0--0-0-0--0--0-0--8--8--6h8p6----5--------------------------------|
D|--0--0-0-0--0-0-0--0--0-0--------------------------------------------------|
       x x x  x x x     x x


[Pre-Chorus]

e|---------------------------------------------------------------------------|
B|---------------------------------------------------------------------------|
G|---------------------------------------------------------------------------|
D|---------------------------------------------------------------------------|
A|--1--1-1-1-1--1-1----5--5-5-5-5--5-5----0--0-0-0-0--0-0--------------------|
D|--1--1-1-1-1--1-1----5--5-5-5-5--5-5----0--0-0-0-0--0-0--------------------|
       x x x x  x x       x x x x  x x       x x x x  x x                     } x2
e|---------------------------------------------------------------------------|
B|---------------------------------------------------------------------------|
G|---------------------------------------------------------------------------|
D|---------------------------------------------------------------------------|
A|--(5----8--8)--------------(1----3--1)-------------------------------------|
D|--(5----7--8)--------------(1----3--1)-------------------------------------|
    (1st time through)       (2nd time through)


[Chorus]

-----------------------------------------------------------------------------| x2
B|----------11--------------10-------------11--------13--13--11--10----------|
G|--12--12------12--12--12------12--12--12-----12----------------------------|
E|---------------------------------------------------------------------------|
A|---------------------------------------------------------------------------|
D|---------------------------------------------------------------------------|


[Pre-Verse]

e|---------------------------------------------------------------------------|
B|---------------------------------------------------------------------------|
G|---------------------------------------------------------------------------|
D|--0---------------------0---------------5----------------------------------|
A|--0--8--8--6h8p6--6--6--0--8--8--6h8p6-----5-------------------------------|
D|---------------------------------------------------------------------------|
                                                                              } x2
e|---------------------------------------------------------------------------|
B|---------------------------------------------------------------------------|
G|---------------------------------------------------------------------------|
D|--0--------------------5--7--8--1--1--3--(1)-------------------------------|
A|--0--8--8--6h8p6--6----3--5--6--1--1--3--(1)-------------------------------|
D|---------------------------------------------------------------------------|
                                           (second time through)

[Verse]

e|---------------------------------------------------------------------------|
B|---------------------------------------------------------------------------|
G|---------------------------------------------------------------------------|
D|---------------------------------------------------------------------------|
A|--0--0-0-0--0-0-0--0--0-0--8--8--6h8p6--5--5-------------------------------|
D|--0--0-0-0--0-0-0--0--0-0--------------------------------------------------|
       x x x  x x x     x x                                                   } x2
e|---------------------------------------------------------------------------|
B|---------------------------------------------------------------------------|
G|---------------------------------------------------------------------------|
D|----------------------------------------5----------------------------------|
A|--0--0-0-0--0-0-0--0--0-0--8--8--6h8p6----5--------------------------------|
D|--0--0-0-0--0-0-0--0--0-0--------------------------------------------------|
       x x x  x x x     x x


[Pre-Chorus]

e|---------------------------------------------------------------------------|
B|---------------------------------------------------------------------------|
G|---------------------------------------------------------------------------|
D|---------------------------------------------------------------------------|
A|--1--1-1-1-1--1-1----5--5-5-5-5--5-5----0--0-0-0-0--0-0--------------------|
D|--1--1-1-1-1--1-1----5--5-5-5-5--5-5----0--0-0-0-0--0-0--------------------|
       x x x x  x x       x x x x  x x       x x x x  x x                     } x2
e|---------------------------------------------------------------------------|
B|---------------------------------------------------------------------------|
G|---------------------------------------------------------------------------|
D|---------------------------------------------------------------------------|
A|--(5----8--8)--------------(1----3--1)-------------------------------------|
D|--(5----7--8)--------------(1----3--1)-------------------------------------|
    (1st time through)       (2nd time through)


[Chorus]

e|-----------------------------------------------------------------------------| x4
B|----------11--------------10-------------11--------13--13--11--10----------|
G|--12--12------12--12--12------12--12--12-----12----------------------------|
E|---------------------------------------------------------------------------|
A|---------------------------------------------------------------------------|
D|---------------------------------------------------------------------------|


[Solo]

e|---------------------------------------------------------------------------| x2
B|---------------------------------------------------------------------------|
G|---------------------------------------------------------------------------|
D|---------------------------------------------------------------------------|
A|--1--1-1-1-1--1-1----5--5-5-5-5--5-5----0--0-0-0-0--0-0----1----3--1-------|
D|--1--1-1-1-1--1-1----5--5-5-5-5--5-5----0--0-0-0-0--0-0----1----3--1-------|
       x x x x  x x       x x x x  x x       x x x x  x x    x    x  x          

e|---------------------------------------------------------------------------|
B|-16v------16b-15v----------------------------------------------------------|
G|-----------------------14b-14----14-15-17v---15-14-15-14-------------------|
D|---------------------------------------------------------17----------------|
A|---------------------------------------------------------------------------|
D|---------------------------------------------------------------------------|

e|---------------------------------------------------------------------------|
B|-------------------18---16-15-16v-------16-18-18b----20b-20------20-22-22b-|
G|----14-15-14----14-------------------15-----------------------19-----------|
D|-17----------17------------------------------------------------------------|
A|---------------------------------------------------------------------------|
D|---------------------------------------------------------------------------|

e|-19b-17v------14-17-15-14--------------------------------15-18-17-15-------|
B|--------------------------15--------------------------15-------------18-15-|
G|-----------------------------15-14-15-14-15-15b----15----------------------|
D|---------------------------------------------------------------------------|
A|---------------------------------------------------------------------------|
D|---------------------------------------------------------------------------|

e|---------------------------------------------------------------------------|
B|-18-15-16-15v--------------------------------------------------------------|
G|---------------------------------------------------------------------------|
D|---------------------------------------------------------------------------|
A|---------------------------------------------------------------------------|
D|---------------------------------------------------------------------------|


[Pre-Verse]

e|---------------------------------------------------------------------------| x3
B|----------11--------------10-------------11--------13--13--11--10----------|
G|--12--12------12--12--12------12--12--12-----12----------------------------|
E|---------------------------------------------------------------------------|
A|---------------------------------------------------------------------------|
D|---------------------------------------------------------------------------|

e|------------------------------------------------------------------------------|
B|----------11--------------10-------------11--------13--13--11--10------10--10-|
G|--12--12------12--12--12------12--12--12-----12--------------------12---------|
E|------------------------------------------------------------------------------|
A|------------------------------------------------------------------------------|
D|------------------------------------------------------------------------------|


[Verse]

e|---------------------------------------------------------------------------|
B|---------------------------------------------------------------------------|
G|---------------------------------------------------------------------------|
D|---------------------------------------------------------------------------|
A|--0--0-0-0--0-0-0--0--0-0--8--8--6h8p6--5--5-------------------------------|
D|--0--0-0-0--0-0-0--0--0-0--------------------------------------------------|
       x x x  x x x     x x                                                   } x2
e|---------------------------------------------------------------------------|
B|---------------------------------------------------------------------------|
G|---------------------------------------------------------------------------|
D|----------------------------------------5----------------------------------|
A|--0--0-0-0--0-0-0--0--0-0--8--8--6h8p6----5--------------------------------|
D|--0--0-0-0--0-0-0--0--0-0--------------------------------------------------|
       x x x  x x x     x x


[Pre-Chorus]

e|---------------------------------------------------------------------------|
B|---------------------------------------------------------------------------|
G|---------------------------------------------------------------------------|
D|---------------------------------------------------------------------------|
A|--1--1-1-1-1--1-1----5--5-5-5-5--5-5----0--0-0-0-0--0-0--------------------|
D|--1--1-1-1-1--1-1----5--5-5-5-5--5-5----0--0-0-0-0--0-0--------------------|
       x x x x  x x       x x x x  x x       x x x x  x x                     } x2
e|---------------------------------------------------------------------------|
B|---------------------------------------------------------------------------|
G|---------------------------------------------------------------------------|
D|---------------------------------------------------------------------------|
A|--(5----8--8)--------------(1----3--1)-------------------------------------|
D|--(5----7--8)--------------(1----3--1)-------------------------------------|
    (1st time through)       (2nd time through)


[Chorus]

e|---------------------------------------------------------------------------| x4
B|----------11--------------10-------------11--------13--13--11--10----------|
G|--12--12------12--12--12------12--12--12-----12----------------------------|
E|---------------------------------------------------------------------------|
A|---------------------------------------------------------------------------|
D|---------------------------------------------------------------------------|


[Outro]

e|---------------------------------------------------------------------------|
B|---------------------------------------------------------------------------|
G|---------------------------------------------------------------------------|
D|--0---------------------0---------------5----------------------------------|
A|--0--8--8--6h8p6--6--6--0--8--8--6h8p6-----5-------------------------------|
D|---------------------------------------------------------------------------|
                                                                              } x2
e|---------------------------------------------------------------------------|
B|---------------------------------------------------------------------------|
G|---------------------------------------------------------------------------|
D|--0--------------------5--7--8--1--1--3--(1--------3--1--0)----------------|
A|--0--8--8--6h8p6--6----3--5--6--1--1--3--(1--------3--1--0)----------------|
D|---------------------------------------------------------------------------|
                                           (second time through)
************************************

| x   palm mute
| h   Hammer-on
| p   Pull-off

************************************

            
            
Suggest correction
Creating personal tab
Creating personal tab
You can edit any tab online and save it as your Personal.

You can edit, replace or remove any tab part or add personal notes – all changes will be seen only by you.

Personal tabs can be accessed anytime from any device, even offline.
Learn more »
Give kudos to tab author, rate the tab!
1 2 3 4 5
comments
print report bad tab
4 comments total. Showing first comments.
-1 reply
Seth Shadows 4,633 Jun 28, 2016 01:42 PM

e|---------------------------------------------------------------------------|
B|---------------------------------------------------------------------------|
G|---------------------------------------------------------------------------|
D|---------------------------------------------------------------------------|
A|--0--0-0-0--0-0-0--0--0-0--8--8--6h8p6--5-x-5~~~~--------------------------|
D|--0--0-0-0--0-0-0--0--0-0--------------------------------------------------|

I don't know how you possibly messed this part up. Solo is pretty weak and omitted notes too.

-1 reply
Seth Shadows 4,633 Jun 28, 2016 01:45 PM

Also, you literally forgot all of the third harmonies to do with this song and the phrasing is all off.
Try again and put some effort in.

0 reply
Icemanadam777 65 Jul 01, 2016 06:42 PM

I appreciate you pointing out my SIMPLE error. I fixed it. I, shower, dont appreciate your shitty attitude when pointing it out. Kindly find the back button on this page and fuck off.

guest
You may want to rate the tab now too:
select rating
Wanna post a correction for this tab? Suggest correction