Oops, an error
Loading. Please wait.

To End The Rapture Tab

version 5
version 5
8,258 views 18 this week
no commentswrite comment
1 2 3 4 5
x 5
add to favorites
launch autoscroll
font size
0
reset
how to read this tab
guitar tuner
Autoscroll
slow
fast
+/-
esc
set tempo
stop
Help us to improve Ultimate-Guitar.com Take our survey!
×
Difficulty
Tuning
advanced
D A D G B E
Riff (Repeat through whole song):
e|-----------------------------------------|
B|-----------------------------------------|.
G|-----------------------5-555---3---5-----|
D|-0---0-0-2-3-333--33---5-555---3---5-----|
A|-0---0-0-2-3-333--33---3-333---1---3-----|.
D|-0---0-0-2-3-333--33---------------------|
       x x x
Solo:
e|-------------------------------------------------------------------------|
B|---------------------------------------------------------------13 /15----|
G|-7--7-7-9-10---10-12-14-12--10-9-10--p9--------7-9-10--9-10--------------|
D|----------------------------------------10-12----------------------------|
A|-------------------------------------------------------------------------|
D|-------------------------------------------------------------------------|
                                   ph
e|------------------------------------------------------------------------------|
B|----------------------------------------------------------------------12-13-15|
G|------------------------------------------------------------12-14-15----------|
D|--------------5-7-8-5-7-8--7-8-10-7-8-10--12-14-15-12-14-15-------------------|
A|-5-7-8-5-7-8------------------------------------------------------------------|
D|------------------------------------------------------------------------------|

                                         (trem pick)
e|---------------------13---15---15^1-15-----20-------18-17----------------17-|
B|--/15-15-17-18---/13---13---13----------------------------20-18-17-18-20----|
G|--/14-14--------------------------------------------------------------------|
D|----------------------------------------------------------------------------|
A|----------------------------------------------------------------------------|
D|----------------------------------------------------------------------------|
              (not much emphasis on /15, just gets you in position to play next part)
e|----------------17-18-17----------------------------------------------------------|
B|-20-18-17-18-20----------20-18-17-20-18-17-/15-18-17-15----------15-17-18-15-17-18|
G|--------------------------------------------------------14-15-17------------------|
D|----------------------------------------------------------------------------------|
A|----------------------------------------------------------------------------------|
D|----------------------------------------------------------------------------------|
                                  +      +                      +      +
e|-17-18-20-22--------10-h12-h13-17-p13-17-p13-p12-p10-h12-h13-15-p13-15-p13-----|
B|-------------------------------------------------------------------------------|
G|-------------------------------------------------------------------------------|
D|-------------------------------------------------------------------------------|
A|-------------------------------------------------------------------------------|
D|-------------------------------------------------------------------------------|

e|--p12-p10----------+------+----------------------+------+--------------------|
B|----------h12-h13-18-p13-18-p13-p12-p10-h12-h13-17-p13-17-p13-p12-p10-h12----|
G|-----------------------------------------------------------------------------|
D|-----------------------------------------------------------------------------|
A|-----------------------------------------------------------------------------|
D|-----------------------------------------------------------------------------|

e|------+------+---------------------+-------+----------------------------|
B|-h13-15-p13-15-p13-p12-p10-h12-h13-15-p13-15-p13-p12-p10-/12-h13-h15----|
G|------------------------------------------------------------------------|
D|------------------------------------------------------------------------|
A|------------------------------------------------------------------------|
D|------------------------------------------------------------------------|

e|--+------+----------------------+------+----------------------+-----+----------|
B|-17-p15-17-p15-p13-p12-h13-h15-18-p15-18-p15-p13-p12-h13-h15-20-p15-20-p15-----|
G|-------------------------------------------------------------------------------|
D|-------------------------------------------------------------------------------|
A|-------------------------------------------------------------------------------|
D|-------------------------------------------------------------------------------|

e|-------------------+------+----------------------+------+------|
B|--p13-p12-h13-h15-22-p15-22-p15-p13-p12-h13-h15-23-p15-23-p15--|
G|---------------------------------------------------------------|
D|---------------------------------------------------------------|
A|---------------------------------------------------------------|
D|---------------------------------------------------------------|

e|-------------------+------+--------------+--------------+------------------|
B|--p13-p12-h13-h15-22-p15-22-p15-p13-p12-20-p12-h13-h15-18-p15-p13-p12------|
G|---------------------------------------------------------------------------|
D|---------------------------------------------------------------------------|
A|---------------------------------------------------------------------------|
D|---------------------------------------------------------------------------|
                                    +
e|-+---------------+---------------22----------------------------------------|
B|-17-p12-h13-h15-18-p15-p13-p12---------------------------------------------|
G|---------------------------------------------------------------------------|
D|---------------------------------------------------------------------------|
A|---------------------------------------------------------------------------|
D|---------------------------------------------------------------------------|

| / slide up
| \ slide down
| h hammer-on
| p pull-off
| ~ vibrato
| + harmonic
| x Mute note
Suggest correction
comments
print report bad tab
guest
You may want to rate the tab now too:
select rating
Wanna post a correction for this tab? Suggest correction