Oops, an error
Loading. Please wait.
We have an official Tonight The World Dies tab made by UG professional guitarists. Check out the tab »
×
2,815 views 3 this week
1 commentread comment
1 2 3 4 5
x 7
add to favorites
×
Save as Personal and add changes to this tab that will be seen only by you. Learn more ›
×
You can save this tab as Personal to edit and correct it or add notes. All changes will be seen only by you. Learn more »
launch autoscroll
font size
0
reset
guitar tuner
edit
Autoscroll
slow
fast
+/-
esc
set tempo
stop
0:14
G|-------------------------0---------------------------------------|
D|-0h2-----------------0-2---2-0-----------------------------------|
A|-------------------------------0---------------------------------|
D|--------------------------------/8---2-------------2-4-2-6-7-4-2-|
   1 e + a 2 e + a 3 e + a 4 e + a 1 e + a 2 e + a 3 e + a 4 e + a 

0:21
G|---------------------------------------------------------3-2-----|
D|-0h2-------------2---2-2-0-2-------------------------2-------5-2-|
A|-----------------------------2---1-------1-------1-2---2---------|
D|-------------------------------2---------------------------------|
   1 e + a 2 e + a 3 e + a 4 e + a 1 e + a 2 e + a 3 e + a 4 e + a 

0:28
G|-----------------------------------------------------------------|
D|-----------------------------------------------------------------|
A|-3-------3-------3---3-3-5--3------------------------------------|
D|-------------------------------5-2-------2-----4-2---2-2-2---2-/-|
   1 e + a 2 e + a 3 e + a 4 e + a 1 e + a 2 e + a 3 e + a 4 e + a 

0:35
G|-----------------------------------------------------------------|
D|-----------------------------------------------------------------|
A|-3-------3-----3-3-3---3-5--3--------------------------------2---|
D|-------------------------------5-2-------------2-----2-2-5-------|
   1 e + a 2 e + a 3 e + a 4 e + a 1 e + a 2 e + a 3 e + a 4 e + a 

0:42
G|-----------------------------------------------------------------|
D|-----------------------------------------------------------------|
A|-3-------3-----3-3-3---3-5--3------------------------------------|
D|-------------------------------5-2-------2---------2-2-2-4---5---|
   1 e + a 2 e + a 3 e + a 4 e + a 1 e + a 2 e + a 3 e + a 4 e + a 

0:49
G|---------------------2-----4-2-----------------------------------|
D|-------------------2---2-------2---------------------------------|
A|-0-------0-----0-0-------0---------------------------------------|
D|---------------------------------5-------5-------5---5-5-5-4-----|
   1 e + a 2 e + a 3 e + a 4 e + a 1 e + a 2 e + a 3 e + a 4 e + a 

0:56
G|---------------------------------------------------------3-2-0---|
D|-0h2-----------2---2-2-------5---------------------0-2-----------|
A|-------------------------5-7-----1-------1-----------------------|
D|-----------------------------------------------------------------|
   1 e + a 2 e + a 3 e + a 4 e + a 1 e + a 2 e + a 3 e + a 4 e + a 

1:04
G|-------------------------0---0-2-3-----------------9-----7-------|
D|-0h2-----------2---2-0-2---2---------------------8~--8-----8-4---|
A|-----------------------------------------------------------------|
D|-----------------------------------------------------------------|
   1 e + a 2 e + a 3 e + a 4 e + a 1 e + a 2 e + a 3 e + a 4 e + a 

1:11
G|-----------------------------------------------------------------|
D|-----------------------------------------------------------------|
A|-3-------------3---3-3---5--3--------------------------------1/--|
D|-------------------------------5-2---------------2-------2-------|
   1 e + a 2 e + a 3 e + a 4 e + a 1 e + a 2 e + a 3 e + a 4 e + a 

1:17
G|-----------------------------------------------------------------|
D|------------------------------------------------/5---5-2---------|
A|-3-------3-----3---3-3---5--3--------------------------------2---|
D|-------------------------------5-2-------------------------------|
   1 e + a 2 e + a 3 e + a 4 e + a 1 e + a 2 e + a 3 e + a 4 e + a 

1:25
G|-----------------------------------------------------------------|
D|-----------------------------------------2-----------------------|
A|-3-------3-----3-----3---5--3------------------------------------|
D|-------------------------------5-2---------------2-------4---5---|
   1 e + a 2 e + a 3 e + a 4 e + a 1 e + a 2 e + a 3 e + a 4 e + a 

1:32
G|-----------------------------------------------------------------|
D|-----------------------------------------------------------------|
A|-0-------0-----0-----0-0---2-0-----------------------------------|
D|---------------------------------5-------5-----5---5-5---5-4-5-4-|
   1 e + a 2 e + a 3 e + a 4 e + a 1 e + a 2 e + a 3 e + a 4 e + a 

1:39
G|-----------------------------------------------------------------|
D|-----------------------------------------------------------------|
A|-----------------------------2---3-------3-----3---3-3-3-3-5-3-2-|
D|-2-------2-----2---2-2---5-2-------------------------------------|
   1 e + a 2 e + a 3 e + a 4 e + a 1 e + a 2 e + a 3 e + a 4 e + a 

1:46
G|-----------------------------------------------------------------|
D|-----------------------------------------------------------------|
A|-----------------------------2---3-------3-----3---3-3-3-3-5-3-2-|
D|-2-------2-----2---2-2-2-5-2-------------------------------------|
   1 e + a 2 e + a 3 e + a 4 e + a 1 e + a 2 e + a 3 e + a 4 e + a 

1:53
G|-----------------------------------------------------------------|
D|-----------------------------------------------------------------|
A|-0-------0-----0---0-0---0-2-----3-------3-----3---3-3---3-3-3---|
D|-----------------------------------------------------------------|
   1 e + a 2 e + a 3 e + a 4 e + a 1 e + a 2 e + a 3 e + a 4 e + a 

2:00
G|---------------------------------------------------------2---0---|
D|---------------------------------------------------2---2---2---2-|
A|---------------------------2---2-1-------1-------1---------------|
D|-2-------------2---2-2---2---2-----------------------------------|
   1 e + a 2 e + a 3 e + a 4 e + a 1 e + a 2 e + a 3 e + a 4 e + a 

2:07
G|-----------------------------------------------------------------|
D|---------------2---2-2---5-2-0-----------------------------------|
A|-------------------------------2-1-------1-------1-------2-1-----|
D|-2-----------------------------------------------------------5---|
   1 e + a 2 e + a 3 e + a 4 e + a 1 e + a 2 e + a 3 e + a 4 e + a 

2:14
G|-----------------------------------------------------------------|
D|-----------------------------------------------------------------|
A|-3-------3-----3---3-3---5--3--------------------------------2---|
D|-------------------------------5-2-------2-------2-------2-4-----|
   1 e + a 2 e + a 3 e + a 4 e + a 1 e + a 2 e + a 3 e + a 4 e + a 

2:22
G|-----------------------------------------------------------------|
D|-------------------------------------------------2-2-4-4-4h5p4---|
A|-3-------3-----3---3-3---5--3------------------------------------|
D|-------------------------------5-2-------2-----2-----------------|
   1 e + a 2 e + a 3 e + a 4 e + a 1 e + a 2 e + a 3 e + a 4 e + a 

2:29
G|-----------------------------------------------------------------|
D|-----------------------------------------------------------------|
A|-3-------3-----3---3-3-3-5--3------------------------------------|
D|-------------------------------5-2-----------------------2---5---|
   1 e + a 2 e + a 3 e + a 4 e + a 1 e + a 2 e + a 3 e + a 4 e + a 

2:36
G|-----------------------------------------------------------------|
D|-----------------------------------------------------------------|
A|-0-------0-------------0-0-2-0-----------------------------------|
D|---------------------------------5-------5-----5---5-5---5-5-4---|
   1 e + a 2 e + a 3 e + a 4 e + a 1 e + a 2 e + a 3 e + a 4 e + a 

2:43
G|-----------------------------------------------------------------|
D|-------2---------------------------------------------------------|
A|-----------------------------0h2h3-------3-----3---3-3---3-5-3-2-|
D|-2-------2-----2---2-5-2-5-2-------------------------------------|
   1 e + a 2 e + a 3 e + a 4 e + a 1 e + a 2 e + a 3 e + a 4 e + a 

2:50
G|-----------------------------------------------------------------|
D|-----------------------------------------------------------------|
A|-----------------------------2---3-------3-----3---3-3---3-5-3-2-|
D|-2-------2-----2---2-2---5-2-------------------------------------|
   1 e + a 2 e + a 3 e + a 4 e + a 1 e + a 2 e + a 3 e + a 4 e + a 

2:57
G|-----------------------------------------------------------------|
D|-----------------------------------------------------------------|
A|-0-------0-----0-0---0---0-2-----3-------3-----3---3-3---3-5-3---|
D|---------------------------------------------------------------5-|
   1 e + a 2 e + a 3 e + a 4 e + a 1 e + a 2 e + a 3 e + a 4 e + a 

3:04
G|-----------------------------------------------------------------|
D|-----------------------------------------------------------------|
A|-0-------0-----0---0-0---0-2-----3-------3-------3-3-3---3-4-5-6-|
D|-----------------------------------------------------------------|
   1 e + a 2 e + a 3 e + a 4 e + a 1 e + a 2 e + a 3 e + a 4 e + a 

3:11
G|-----------------------------------------------4-----4---4---4---|
D|-2---2-2-2-----2-----2-------------------------------------------|
A|-------------3-----3-----3-5-7-\-2-------2---2---2-2---2---2---2-|
D|-----------------------------------------------------------------|
   1 e + a 2 e + a 3 e + a 4 e + a 1 e + a 2 e + a 3 e + a 4 e + a 

3:19
G|---------------5-----5-7-5---------------------------------------|
D|---------------------------5-------------5-5---------5-4---------|
A|-3---3-3-3---3-----3---------3-3-5-----5-----5-----5-----5-------|
D|-----------------------------------------------------------------|
   1 e + a 2 e + a 3 e + a 4 e + a 1 e + a 2 e + a 3 e + a 4 e + a 

3:26
G|-----------------------------------------------------4---4-------|
D|---------------------2-----5-4-----------------------------------|
A|-------------------2---2-5-----5-2-----2-2---2-2---2---2---2-0-2-|
D|-2---------------------------------------------------------------|
   1 e + a 2 e + a 3 e + a 4 e + a 1 e + a 2 e + a 3 e + a 4 e + a 

3:33
G|-----------------------------------------------------------------|
D|-----------------------------------------------------------------|
A|-3-3-3-3-3-3-3-3-3-3-----3-3-3-3-5---5---5---5---5-5-5---5-7-7---|
D|-----------------------------------------------------------------|
   1 e + a 2 e + a 3 e + a 4 e + a 1 e + a 2 e + a 3 e + a 4 e + a 

3:40
G|-----------------------------------------------------------------|
D|-----------------------------------------------------------------|
A|-----------------------------2---3-------3-----3---3-3---3-5-3-2-|
D|-2---2-2-2---2-2---2-2---5-2-------------------------------------|
   1 e + a 2 e + a 3 e + a 4 e + a 1 e + a 2 e + a 3 e + a 4 e + a 

3:47
G|-----------------------------------------------------------------|
D|-----------------------------------------------------------------|
A|-----------------------------2---3-------3-----3---3-3---3-5-3-2-|
D|-2-------2-----2---2-2---5-2-------------------------------------|
   1 e + a 2 e + a 3 e + a 4 e + a 1 e + a 2 e + a 3 e + a 4 e + a 

3:54
G|-----2-----------------------------------------------------------|
D|-----------------------------------------------------------------|
A|-0-------0-----0-0-0-----0-2-----3---3---3-----3-3-3-----3-3-2---|
D|-----------------------------------------------------------------|
   1 e + a 2 e + a 3 e + a 4 e + a 1 e + a 2 e + a 3 e + a 4 e + a 

4:01
G|-----------------------------------------------------------------|
D|-----------------------------------------------------------------|
A|-0---0---0-----0-0-0-0-0-0-2---2-3-------3-----3-3-3-3-3-3-3-3-3-|
D|-----------------------------------------------------------------|
   1 e + a 2 e + a 3 e + a 4 e + a 1 e + a 2 e + a 3 e + a 4 e + a 

4:08
G|-------------------------------2-3-------3-------3-9-----7-------|
D|-2-------------------0-2-5-2-5-------------------------8---8-7---|
A|-----------------------------------------------------------------|
D|-----------------------------------------------------------------|
   1 e + a 2 e + a 3 e + a 4 e + a 1 e + a 2 e + a 3 e + a 4 e + a 

4:16
G|-----------------------------------------------------------------|
D|-0h2-----------2---2-2---0-2-0-----------------------------------|
A|-------------------------------2-1-------------------------------|
D|-------------------------------------------------8\5\2---5---2---|
   1 e + a 2 e + a 3 e + a 4 e + a 1 e + a 2 e + a 3 e + a 4 e + a 

4:23
G|-----------------------------------------------------------------|
D|-----------------------------------------------------------------|
A|-5h7---------------------\-\-\-\---------------------------------|
D|-----------------------------------------------------------------|
   1 e + a 2 e + a 3 e + a 4 e + a 1 e + a 2 e + a 3 e + a 4 e + a 
Tabbed by Dave Vucko

            
            
Suggest correction
Creating personal tab
Creating personal tab
You can edit any tab online and save it as your Personal.

You can edit, replace or remove any tab part or add personal notes – all changes will be seen only by you.

Personal tabs can be accessed anytime from any device, even offline.
Learn more »
comments
print report bad tab
1 comment total.
0 reply
RockbassHM 10 Nov 03, 2015 06:00 AM

This sounds perfect, but it's easier to play it in standart tuning, and I'm pretty sure that Johnny played it in standart tuning too, but good job :)

guest
You may want to rate the tab now too:
select rating
Wanna post a correction for this tab? Suggest correction