Oops, an error
Loading. Please wait.

Tonight The World Dies Chords

version 2
version 2

Whole song

Interactive

36,095 views 78 this week
9 commentsread comments
1 2 3 4 5
excellent!
x 64
add to favorites
launch autoscroll
font size
0
reset
transpose
0
reset
simplify chords
display chords
guitar tuner
Autoscroll
slow
fast
+/-
esc
set tempo
stop
Help us to improve Ultimate-Guitar.com Take our survey!
×
Author
this is just a minor edit of the tab posted by sukitoitte. 
all credit for actual tabbing goes to her.


Intro:
e------------------------------------------|
b--0--0--0-00-0-00-------------------------|
g--0--0--0-00-0-00-----3--3--3-33-3-33-----|
d--2--2--2-22-2-22-----2--2--2-22-2-22-----|
a--2--2--2-22-2-22-----2--2--2-22-2-22-----|
e--x--x--x-xx-x-xx-----x--x--x-xx-x-xx-----|  x4


C                       Em
Lost the meaning of our stay
C                     Em
Learn to live another day
C                           Em
Doubt the choices that we've made
                     Am
I know that we can't hide our shame
                 G
It's only in disguise


e------------------------------------------|
b--0--0--0-00-0-00-------------------------|
g--0--0--0-00-0-00-----3--3--3-33-3-33-----|
d--2--2--2-22-2-22-----2--2--2-22-2-22-----|
a--2--2--2-22-2-22-----2--2--2-22-2-22-----|
e--x--x--x-xx-x-xx-----x--x--x-xx-x-xx-----|  x2


C                     Em
Drowning in our own debris
C                                Em
Full of thoughts as though we're free
C                        Em
Close our eyes so we can see
                    Am
The depth of all we mean to be
              G
If only in my eyes


Em        C
I don't mind (read the writing on the wall)
Em      C
Mother cries (tortured voices as we crawl)
Am
Find me on my better days
   C                       Em
To lose it once again, in a way


e------------------------------------------|
b--0--0--0-00-0-00-------------------------|
g--0--0--0-00-0-00-----3--3--3-33-3-33-----|
d--2--2--2-22-2-22-----2--2--2-22-2-22-----|
a--2--2--2-22-2-22-----2--2--2-22-2-22-----|
e--x--x--x-xx-x-xx-----x--x--x-xx-x-xx-----|  x2


C                            Em
So try and love me while you can
C                         Em
And take the time to understand
C                          Em
As long as I can touch your face
                        Am
You know I'll never leave this place
            G
If only in my mind

Em        C
I don't mind (read the writing on the wall)
Em      C
Mother cries (tortured voices as we crawl)
Am
Find me on my better days
   C                       
To lose it once again,
      Am
But i seem to find no better ways,
   C
To consciously Pretend.


E              Bsus2
Silence, all I want to say
            C
Seems to run away
              D
I'll run away with you tonight
E              Bsus2
Launder all my sins away
                      C
And just like that mistakes are made
          D
You know, tonight the world...

Em                 C
... dies, I don't mind (read the writing on the wall)
Em      C
Mother cries (tortured voices as we crawl)
Am
Find me on my better days
   C                      
To lose it once again, 
      Am
But i seem to find no better ways,
   C
To consciously Pretend.

e------------------------------------------|
b--0--0--0-00-0-00-------------------------|
g--0--0--0-00-0-00-----3--3--3-33-3-33-----|
d--2--2--2-22-2-22-----2--2--2-22-2-22-----|
a--2--2--2-22-2-22-----2--2--2-22-2-22-----|
e--x--x--x-xx-x-xx-----x--x--x-xx-x-xx-----|  x3


*the last note is the E minor and just let it ring.
Suggest correction
comments
print report bad tab
9 comments total. Showing first comments. show 1 bad comment
+5 reply
SOAD-4-LYFE 190 wrote on October 24 2011, 05:15 pm

You know, if you would read the first line, I say that it is just a minor edit and still give credit to the person who originally tabbed it. Also, I used the SAME EXACT chords as her, just added basic tablature for the rhythm, plus, I changed a few lyrics so they were accurate. So, if my chords are wrong, hers are too. Just sayin'.

+3 reply
rockmaster689 20 wrote on December 28 2011, 03:55 am

Perfect tab, absuletely spot on, well done mate

A7X foREVer

guest
You may want to rate the tab now too:
select rating
Please do not post tabs as comments. Select "correction" instead!