Oops, an error
Loading. Please wait.

Turn The Other Way tab

version 3
version 3

Whole song

Interactive

28 views 3 this week
no commentswrite comment
1 2 3 4 5
2 more votes to show rating
add to favorites
×
Save as Personal and add changes to this tab that will be seen only by you. Learn more ›
×
You can save this tab as Personal to edit and correct it or add notes. All changes will be seen only by you. Learn more »
launch autoscroll
font size
0
reset
how to read this tab
guitar tuner
edit
Autoscroll
slow
fast
+/-
esc
set tempo
stop
Band: Avenged Sevenfold
Song: Turn the Other Way
Tuning: Drop D
Tabbed by: Peryitex

[Intro]

The song begins with a bar of 6/4, before going into 4/4.

e|-------------------------------------|
B|-------------------------------------|
G|-------------------------------------|
D|-0-------3---6-----8-----7-----3-----|
A|-0-------3---6-----8-----7-----3-----|
D|-0-------3---6-----8-----7-----3-----|

Play this section twice, but don't use palm muting the second time you play it.

e|---------------------------------|---------------------------------|
B|---------------------------------|---------------------------------|
G|---------------------------------|-------------------------7-------|
D|---------------------------------|---------------------7-----------|
A|-0-0-0-------0-0-0-0-0-------0---|-----0-0-0-0-0-------------------|
D|-0-0-0-------0-0-0-0-0-------0---|-----0-0-0-0-0-------------------|
   1   a   2   a   3   a   4   a     1   a   2   a   3   a   4   a

  PM----------------------------------------------|      n.h.--|

e|---------------------------------|---------------------------------|
B|---------------------------------|---------------------------------|
G|---------------------------------|---------------------------------|
D|---------------------------------|-------------------------1-------|
A|-0-0-0-------0-0-0-0-0-------0---|-----0-0-0-0-0-------0---1-------|
D|-0-0-0-------0-0-0-0-0-------0---|-----0-0-0-0-0-------0---1-------|
   1   a   2   a   3   a   4   a     1   a   2   a   3   a   4   a

  PM------------------------------------------------------|

e|---------------------------------|---------------------------------|
B|---------------------------------|---------------------------------|
G|---------------------------------|-------------------------7-------|
D|---------------------------------|---------------------7-------7---|
A|-0-0-0-------0-0-0-0-0-------0---|-----0-0-0-0-0-------------------|
D|-0-0-0-------0-0-0-0-0-------0---|-----0-0-0-0-0-------------------|
   1   a   2   a   3   a   4   a     1   a   2   a   3   a   4   a

  PM----------------------------------------------|      n.h.-----|

e|---------------------------------|---------------------------------|
B|---------------------------------|---------------------------------|
G|---------------------------------|---------------------------------|
D|---------------------------------|-------------------------1-------|
A|-0-0-0-------0-0-0-0-0-------0---|-----0-0-0-0-0-------0---1-------|
D|-0-0-0-------0-0-0-0-0-------0---|-----0-0-0-0-0-------0---1-------|
   1   a   2   a   3   a   4   a     1   a   2   a   3   a   4   a

  PM------------------------------------------------------|

[Verse]

e|---------------------------------|---------------------------------|
B|---------------------------------|---------------------------------|
G|---------------------------------|---------------------------------|
D|-------------10--8-----------8---|-----7---8---7---8-/-10--10------|
A|-----8---7---10--8-----------8---|-----7---8---7---8-/-10--10------|
D|-0-----------10--8-----------8---|-----7---8---7---8-/-10--10------|

e|---------------------------------|---------------------------------|
B|---------------------------------|---------------------------------|
G|---------------------------------|---------------------------------|
D|-------------10--8---------------|-----------------7h8p7-----------|
A|-----8---7---10--8----------8h10-|-----8------10-----------8---7---|
D|-0-----------10--8---------------|---------------------------------|

                                                                p.h.

e|---------------------------------|---------------------------------|
B|---------------------------------|---------------------------------|
G|---------------------------------|---------------------------------|
D|-------------10--8-----------8---|-----7---8---7---8-/-10--10------|
A|-----8---7---10--8-----------8---|-----7---8---7---8-/-10--10------|
D|-0-----------10--8-----------8---|-----7---8---7---8-/-10--10------|

e|---------------------------------|---------------------------------|
B|---------------------------------|---------------------------------|
G|---------------------------------|---------------------------------|
D|-------------10--8---------------|---------------------------------|
A|-----8---7---10--8----------8h10-|-----8-------7---8p7-------------|
D|-0-----------10--8---------------|-------------------------10------|


[Break]

e|---------------------------------|---------------------------------|
B|---------------------------------|---------------------------------|
G|---------------------------------|---------------------------------|
D|---------------------------------|---------------------------------|
A|-0-0-0-------0-0-0-0-0-------0---|-----0-0-0-0-0-------------------|
D|-0-0-0-------0-0-0-0-0-------0---|-----0-0-0-0-0-------------------|
   1   a   2   a   3   a   4   a     1   a   2   a   3   a   4   a

  PM----------------------------------------------|      

e|---------------------------------|---------------------------------|
B|---------------------------------|---------------------------------|
G|---------------------------------|---------------------------------|
D|---------------------------------|-----------------12\-------------|
A|-0-0-0-------0-0-0-0-0-------0---|-----0-0-0-0-0---12\-------------|
D|-0-0-0-------0-0-0-0-0-------0---|-----0-0-0-0-0---12\-------------|
   1   a   2   a   3   a   4   a     1   a   2   a   3   a   4   a

  PM----------------------------------------------|     

e|---------------------------------|---------------------------------|
B|---------------------------------|---------------------------------|
G|---------------------------------|-------------------------7-------|
D|---------------------------------|---------------------7-----------|
A|-0---0-------0---0---0-------0---|-----0---0---0-------------------|
D|-0---0-------0---0---0-------0---|-----0---0---0-------------------|
   1   a   2   a   3   a   4   a     1   a   2   a   3   a   4   a

                                                         n.h.--|

e|---------------------------------|---------------------------------|
B|---------------------------------|---------------------------------|
G|---------------------------------|---------------------------------|
D|---------------------------------|-------------------------1-------|
A|-0---0-------0---0---0-------0---|-----0---0---0-------0---1-------|
D|-0---0-------0---0---0-------0---|-----0---0---0-------0---1-------|
   1   a   2   a   3   a   4   a     1   a   2   a   3   a   4   a

e|---------------------------------|---------------------------------|
B|---------------------------------|---------------------------------|
G|---------------------------------|-------------------------7-------|
D|---------------------------------|---------------------7-------7---|
A|-0---0-------0---0---0-------0---|-----0---0---0-------------------|
D|-0---0-------0---0---0-------0---|-----0---0---0-------------------|
   1   a   2   a   3   a   4   a     1   a   2   a   3   a   4   a

                                                         n.h.----|

e|---------------------------------|---------------------------------|
B|---------------------------------|---------------------------------|
G|---------------------------------|---------------------------------|
D|---------------------------------|-------------------------1-------|
A|-0---0-------0---0---0-------0---|-----0---0---0-------0---1-------|
D|-0---0-------0---0---0-------0---|-----0---0---0-------0---1-------|
   1   a   2   a   3   a   4   a     1   a   2   a   3   a   4   a

[Verse]

e|-------------------|-------------------------|
B|-------------------|-------------------------|
G|-------------------|-------------------------|
D|-0-----0-----0-----|-------------------------|
A|-0-----0-----0-----|-5--3--------------5-----|
D|-0-----0-----0-----|-------6--5--3--0--------|

                                         p.h.                                              

e|-------------------------|-------------------------|-------------------------|-------------------------|
B|-------------------------|-------------------------|-------------------------|-------------------------|
G|-------------------------|-------------------------|-------------------------|-------------------------|
D|-0-----0-----0-----0-----|-3--0--0--5--0--0--8--0--|-1-----1-----1-----1-----|-------------------------| 4x 
A|-0-----0-----0-----0-----|-3--0--0--5--0--0--8--0--|-1-----1-----1-----1-----|-5--3--------------5-----|
D|-0-----0-----0-----0-----|-3--0--0--5--0--0--8--0--|-1-----1-----1-----1-----|-------6--5--3--0--------|

                                                                                                   p.h.

[Break]

e|---------------------------------|---------------------------------|
B|---------------------------------|---------------------------------|
G|---------------------------------|---------------------------------|
D|-----------------1p0-------------|-----------------1---------------|
A|-0---0-------1p0-------------0---|-----0-------1p0-----------------|
D|-0---0-----------------------0---|-----0---------------------------|

   PM---|                     |-----------|                             8x

e|---------------------------------|---------------------------------|
B|---------------------------------|---------------------------------|
G|---------------------------------|-----------------5-------6-------|
D|-----------------1p0-------------|---------------------5-----------|
A|-0---0-------1p0---------0---0---|-0---0---------------------------|
D|-0---0-------------------0---0---|-0---0---------------------------|

   PM---|                 |---------------|

After the riff above has been played 4 times the 2nd guitar begins to play a small variation:

e|---------------------------------|
B|---------------------------------|
G|---------------------------------|
D|---------------------5---6-------|
A|-0---0-----------5---------------|
D|-0---0---------------------------|

   PM---|       

e|---------------------------------|---------------------------------|
B|---------------------------------|---------------------------------|
G|-----------------7-------8-------|-----------------8-------10------|
D|---------------------7-------7---|-------------7/8-----8-------8---|
A|-0---0---------------------------|-0---0---------------------------|
D|-0---0---------------------------|-0---0---------------------------|

   PM---|                           |-----|                     

e|---------------------------------|---------------------------------|
B|-----------------6-h-8-----------|---------------------------------|
G|-------------------------7-------|--7h8p7--------------------------|
D|---------------------------------|---------8---10--7---8---5---7---|
A|-0---0---------------------------|---------------------------------|
D|-0---0---------------------------|---------------------------------|

   PM---|                                                       p.h.

e|---------------------------------|---------------------------------|
B|---------------------------------|---------------------------------|
G|-----------------7-------8-------|-----------------8-------10------|
D|---------------------7-------7---|-------------7/8-----8-------8---|
A|-0---0---------------------------|-0---0---------------------------|
D|-0---0---------------------------|-0---0---------------------------|

   PM---|                           |-----|                     

e|---------------------------------|---------------------------------|
B|-----------------6-h-8-----------|---------------------------------|
G|-------------------------7-------|-7---8---7-----------------------|
D|---------------------------------|-------------10--8-------10------|
A|-0---0---------------------------|---------------------------------|
D|-0---0---------------------------|---------------------------------|

   PM---|

[Chorus]

e|-------------------------|-------------------------|-------------------------|-------------------------|
B|-------------------------|-------------------------|-------------------------|-------------------------|
G|-10----------10----10-10-|----10-10----12----14----|-12----12-12-12----12\7--|----7--7-----7--7--7--7--|
D|-10----------10----10-10-|----10-10-----x-----x----|--x-----x--x--x-----x-5--|----7--7-----7--7--7--7--|
A|--8-----------8-----8--8-|-----8--8----10----12----|-10----10-10-10----10\5--|----5--5-----5--5--5--5--|
D|-------------------------|-------------------------|-------------------------|-------------------------|

e|-------------------------|-------------------------|-------------------------|-------------------------|
B|-------------------------|-------------------------|-------------------------|-------------------------|
G|-8-----8--8--8-----8--8--|----8--8-----8--8--8--8--|-10----10-10-10----10\7--|----7--7-----7--7--7--7--|
D|-8-----8--8--8-----8--8--|----8--8-----8--8--8--8--|-10----10-10-10----10\7--|----7--7-----7--7--7--7--|
A|-6-----6--6--6-----6--6--|----6--6-----6--6--6--6--|--8-----8--8--8-----8\5--|----5--5-----5--5--5--5--|
D|-------------------------|-------------------------|-------------------------|-------------------------|

e|-------------------------|-------------------------|-------------------------|-------------------------|
B|-------------------------|-------------------------|-------------------------|-------------------------|
G|-12----12-12-12-12-12-12-|----12-12-12-12-10-10-10-|-8-----8-----8--8--8--8--|----8--8-----8--8--8--8--|
D|-12----12-12-12-12-12-12-|----12-12-12-12-10-10-10-|-8-----8-----8--8--8--8--|----8--8-----8--8--8--8--|
A|-10----10-10-10-10-10-10-|----10-10-10-10--8--8--8-|-6-----6-----6--6--6--6--|----6--6-----6--6--6--6--|
D|-------------------------|-------------------------|-------------------------|-------------------------|

e|-------------------------|-------------------------|-------------------------|-------------------------|
B|-------------------------|-------------------------|-------------------------|-------------------------|
G|-------------------------|-------------------------|-------------------------|-------------------------|
D|-8-----8-----8--8--8--8--|----8--8-----8-----8--8--|-3-----3-----3--3--3--3--|----7--7-----7--7--------|
A|-8-----8-----8--8--8--8--|----8--8-----8-----8--8--|-3-----3-----3--3--3--3--|----7--7-----7--7--7--7--|
D|-8-----8-----8--8--8--8--|----8--8-----8-----8--8--|-3-----3-----3--3--3--3--|----7--7-----7--7--7--7--|

                                                                                                  PM---|

[Break]

e|-------------------------|-------------------------|-------------------------|-------------------------|
B|-------------------------|-------------------------|-------------------------|-------------------------|
G|-7--7--7--7--7--7--7--7--|-7--7--7--7--7--7--7--7--|-7-/8--8--8--8--8--8-\5--|-5--5--5--5--5--5--5--5--|
D|-x--x--x--x--x--x--x--x--|-x--x--x--x--x--x--x--x--|-x--x--x--x--x--x--x--x--|-x--x--x--x--x--x--x--x--| 3x
A|-5--5--5--5--5--5--5--5--|-5--5--5--5--5--5--5--5--|-5-/6--6--6--6--6--6-\3--|-3--3--3--3--3--3--3--3--|
D|-------------------------|-------------------------|-------------------------|-------------------------|

e|-------------------------|-------------------------|-------------------------|-------------------------|
B|-------------------------|-------------------------|-------------------------|-------------------------|
G|-7--7--7--7--7--7--7--7--|-7--7--7--7--7--7--7--7--|-7-/8--8--8--8--8--8--8--|-------------------------|
D|-x--x--x--x--x--x--x--x--|-x--x--x--x--x--x--x--x--|-x--x--x--x--x--x--x--x--|-------------------------|
A|-5--5--5--5--5--5--5--5--|-5--5--5--5--5--5--5--5--|-5-/6--6--6--6--6--6--6--|-------------------------|
D|-------------------------|-------------------------|-------------------------|-------------------------|


e|-------------------------|-------------------------|-------------------------|-------------------------|
B|-------------------------|-------------------------|-------------------------|-------------------------|
G|-------------------------|-------------------------|-------------------------|-------------------------|
D|-5--5--------------5--5--|-5--5--------------------|-5--5--------------5--5--|-5-----------------------| 7x
A|-5--5--------------5--5--|-5--5--------------------|-5--5--------------5--5--|-5---6---5---0---3---6---|
D|-5--5--------------5--5--|-5--5--------------------|-5--5--------------5--5--|-5---6---5---0---3---6---|

                                                                                    PM----------------|

e|-------------------------|-------------------------|-------------------------|-------------------------|
B|-------------------------|-------------------------|-------------------------|-------------------------|
G|-------------------------|-------------------------|-------------------------|-------------------------|
D|-5--5--------------5--5--|-5--5--------------------|-5--5--------------5--5--|-5-------------------6---|
A|-5--5--------------5--5--|-5--5--------------------|-5--5--------------5--5--|-5---6---5---0---3---6---|
D|-5--5--------------5--5--|-5--5--------------------|-5--5--------------5--5--|-5---6---5---0---3---6---|

                                                                                    PM------------|

[Outro]

Repeat until fadeout:

e|-------------------------|-------------------------|-------------------------|-------------------------|
B|-------------------------|-------------------------|-------------------------|-------------------------|
G|-------------------------|-3-----------3-----3--3--|-5-----------5-----5--5--|-3------------3----3--3--|
D|-0-----------0-----0--0--|-3-----------3-----3--3--|-5-----------5-----5--5--|-3------------3----3--3--|
A|-0-----------0-----0--0--|-1-----------1-----1--1--|-3-----------3-----3--3--|-1------------1----1--1--|
D|-0-----------0-----0--0--|-------------------------|-------------------------|-------------------------|


e|-------------------------|-------------------------|-------------------------|-------------------------|
B|-------------------------|-------------------------|-------------------------|-------------------------|
G|-------------------------|-------------------------|-------------------------|-------------------------|
D|-------------------------|-------------------------|------/7-----5-----------|-------------------------|
A|------/6-----5-----6-/8--|-7--5--3-----5-----0-----|-1-----------------8-----|-7--8--7--5--3-----7-----|
D|-0-----------------------|-------------------------|-------------------------|-------------------------|

e|-------------------------|-------------------------|-------------------------|-------------------------|
B|-------------------------|-------------------------|-------------------------|-------------------------|
G|-------------------------|-------------------------|-------------------------|-------------------------|
D|-------------------------|-------5-/7--5-----7--8--|-7-----8-/10-8-----7-----|-5--7--5-----------------|
A|------/6-----5-----6-/8--|-7-----------------------|-------------------------|----------8--7-----8-----|
D|-0-----------------------|-------------------------|-------------------------|-------------------------|

Eventually, an acoustic guitar starts to fade in:

 [Dmin]                    [C]                       [Bb]                      [C]  

e|-1-----1--1--1--1--1--1--|-0-----0--0--0--0--0--0--|-------------------------|-0-----0--0--0--0--0--0--|
B|-3-----3--3--3--3--3--3--|-1-----1--1--1--1--1--1--|-3-----3--3--3--3--3--3--|-1-----1--1--1--1--1--1--|
G|-2-----2--2--2--2--2--2--|-0-----0--0--0--0--0--0--|-3-----3--3--3--3--3--3--|-0-----0--0--0--0--0--0--|
D|-0-----0--0--0--0--0--0--|-2-----2--2--2--2--2--2--|-3-----3--3--3--3--3--3--|-2-----2--2--2--2--2--2--|
A|-0-----0--0--0--0--0--0--|-3-----3--3--3--3--3--3--|-1-----1--1--1--1--1--1--|-3-----3--3--3--3--3--3--|
D|-0-----0--0--0--0--0--0--|-------------------------|-------------------------|-------------------------|

************************************

| x     Dead note
| h     Hammer-on
| p     Pull-off
| /     Slide up
| \     Slide down
| PM    Palm mute
| p.h.  Pinch Harmonic
| n.h.  Natural Harmonic

************************************

            
            
Suggest correction
Creating personal tab
Creating personal tab
You can edit any tab online and save it as your Personal.

You can edit, replace or remove any tab part or add personal notes – all changes will be seen only by you.

Personal tabs can be accessed anytime from any device, even offline.
Learn more »
Give kudos to tab author, rate the tab!
1 2 3 4 5
comments
print report bad tab
guest
You may want to rate the tab now too:
select rating
Wanna post a correction for this tab? Suggest correction