Oops, an error
Loading. Please wait.

Unbound The Wild Ride Tab

version 2
version 2

Solo

Whole song

Interactive

552 views 1 this week
no commentswrite comment
1 2 3 4 5
please rate
add to favorites
launch autoscroll
font size
0
reset
how to read this tab
guitar tuner
Autoscroll
slow
fast
+/-
esc
set tempo
stop
Help us to improve Ultimate-Guitar.com Take our survey!
×
Author
Tuning
D A D G B E
The outro/solo....

Guitar 1

E|--------------------------------|
B|-----10b----8b---6-6p5-6-8-10---|
G|--/7-----\6---------------------|
D|----------------8---------------|
A|--------------------------------|
D|--------------------------------|


E|--------------------------------|
B|-----10b----8b---6-6p5~---------|
G|--/7-----\6---------------------|
D|----------------8---------------|
A|--------------------------------|
D|--------------------------------|

E|--------13-12------------10-12^13-10----10^---9-10-9--12-13-12----------------|
B|------13----13---------11------------13-13^-----------------------------------|
G|----14--------12-----10-------------------------------------------------------|
D|--15------------14-12------------------------------------------9-10-15-14-----|
A|--------------------------------------------------------------------------12--|
D|------------------------------------------------------------------------------|


Guitar 2

E|-----13-15-13--12-13-12----8-10-8--8-10-12-15---|
B|------------------------------------------------|
G|--10----------9----------7----------------------|
D|------------------------------------------------|
A|------------------------------------------------|
D|------------------------------------------------|


E|-----13-15-13--12-13-12----8-10-8--8-10~--------|
B|------------------------------------------------|
G|--10----------9----------7----------------------|
D|------------------------------------------------|
A|------------------------------------------------|
D|------------------------------------------------|

E|----------17--15-12-------------10-12-17b-15-13-13~--12-13-12-15-17-15-------------------|
B|----15-17----------13------11-13-----------------------------------------8-10-15-13^14---|
G|-17------------------14------------------------------------------------------------------|
D|-----------------------------------------------------------------------------------------|
A|-----------------------------------------------------------------------------------------|
D|-----------------------------------------------------------------------------------------|
Suggest correction
What's this?
You can suggest a correction to this tab. Community and Mods will review your correction and vote to approve or reject it.
comments
We did not receive enough feedback on this tab! Please rate:
print report bad tab
1 2 3 4 5
guest
You may want to rate the tab now too:
select rating
Please do not post tabs as comments. Select "correction" instead!