Oops, an error
Loading. Please wait.

Unbound The Wild Ride Tab

version 1
version 1

Whole song

Interactive

30,847 views 36 this week
4 commentsread comments
1 2 3 4 5
excellent!
x 12
add to favorites
launch autoscroll
font size
0
reset
how to read this tab
guitar tuner
Tab Pro tools
  • play this tab
  • loop segment
  • change instrument
  • show fretboard
  • metronome
×
Best way to learn
"Unbound The Wild Ride"
Autoscroll
slow
fast
+/-
esc
set tempo
stop
Contributor
Difficulty
Tuning
intermediate
D A D G B E
-------------------------------------------------------------------------------
                           "Unbound (The Wild Ride)" --- Avenged Sevenfold
-------------------------------------------------------------------------------

Tabbed by: [travis]

Tuning: Drop D (D A D G B E) [low to high]







***December 28, 2009: R.I.P. Jimmy "The R.E.V." Sullivan. You will be missed. ***












Key: F Major [F G A Bb C D E F)


Legend:
... = palm mute
h = hammer on
p = pull off
b = bend
*** = feedback
__ = hold bend
1 = whole step bend
.5 = half step bend
1.5 = step and a half bend
x/x/ = pick slide
/ = slide up
\ = slide down
x = muffled string/muted string
~~ = vibrato
() = note barely heard, or bring bent note back to normal
h/ = one pick
h/p\ = one pick
2h/4 = one pick phrase
++ = section divider


Guitar 1: There's no Guitar 1 in the second section below the (VV).
                                    VV
e|---------------------------------|--|------------------------------------|----------------|
B|------------15h/17---\15--15\11~-|--|------------15h/17--\15--15--15h/18-|-18-17---15--17-|
G|-7/15--14----x---x-----x---x--x--|--|-7/15--14----x---x----x---x---x---x-|--x--x----x---x-|
D|-x--x---x---12h/14---\12--12\-8~-|--|-x--x---x---12h/14--\12--12--12h/15-|-15-14---12--14-|
A|-5/13--12------------------------|--|-5/13--12---------------------------|----------------|
D|---------------------------------|--|------------------------------------|----------------|


Guitars 2 and 3: 
Listen for Rhythm. Each section below matches the section above.
The 5/7 chord goes with the 1st section above, and the 5/8 goes with the second section,
and the 5/7 chord goes with the 3rd section above. Same for the fourth sections.
e|----------|------------|----------|----------|
B|----------|------------|----------|----------|
G|----------|------------|----------|----------|
D|------7---|------8-----|-----7----|-----8----|
A|------5---|------5-----|-----5----|-----5----|
D|----------|------------|----------|----------|

++++++++++++++++++++++++++++++++++++
Guitar 4:
     1____________         1____  1.5_________
e|--------------------------------------------|
B|--------------------------------------------|
G|-10b~~~~~~~~~~~~(10)---12b----(12)b~~~~~~~~-|
D|--------------------------------------------|
A|--------------------------------------------|
D|--------------------------------------------|

Guitar 5:
    1______________        1____ 1.5__________
e|--------------------------------------------|
B|--------------------------------------------|
G|-7b~~~~~~~~~~~~~~(7)----9b----(9)b~~~~~~~~~-|
D|--------------------------------------------|
A|--------------------------------------------|
D|--------------------------------------------|

Guitars 2 and 3: Listen for Rhythym.
e|--------|
B|--------|
G|--------|
D|----5---|
A|----3---|
D|--------|

+++++++++++++++++++++++++++++++++++++
Guitar 1: There's no Guitar 1 in the second section below the (VV).
                                    VV
e|---------------------------------|--|------------------------------------|----------------|
B|------------15h/17---\15--15\11~-|--|------------15h/17--\15--15--15h/18-|-18-17---15--17-|
G|-7/15--14----x---x-----x---x--x--|--|-7/15--14----x---x----x---x---x---x-|--x--x----x---x-|
D|-x--x---x---12h/14---\12--12\-8~-|--|-x--x---x---12h/14--\12--12--12h/15-|-15-14---12--14-|
A|-5/13--12------------------------|--|-5/13--12---------------------------|----------------|
D|---------------------------------|--|------------------------------------|----------------|


Guitars 2 and 3: 
Listen for Rhythm. Each section below matches the section above.
The 5/7 chord goes with the 1st section above, and the 5/8 goes with the second section,
and the 5/7 chord goes with the 3rd section above. Same for the fourth sections.
e|----------|------------|----------|----------|
B|----------|------------|----------|----------|
G|----------|------------|----------|----------|
D|------7---|------8-----|-----7----|-----8----|
A|------5---|------5-----|-----5----|-----5----|
D|----------|------------|----------|----------|

Guitar 4:
e|-----------------------------------------------------------|
B|------------------------8---10---------------------8----10-|
G|-7h/10~~~~~~~~-7h/10-------------10~~~~~~~~7h/10-----------|
D|-----------------------------------------------------------|
A|-----------------------------------------------------------|
D|-----------------------------------------------------------|

Guitar 5:
e|--------------------------------------------------------|
B|-----------------------5----6--------------------5----6-|
G|-5h/7~~~~~~~~~-5h/7--------------7~~~~~~~~~5h7----------|
D|--------------------------------------------------------|
A|--------------------------------------------------------|
D|--------------------------------------------------------|

+++++++++++++++++++++++++++++++++++++++
Guitar 4:
     1_____________                    1___________
e|-------------------------------------------------|
B|-------------------10-8----10-8----10b~~~~~~~~~~~|
G|-10b~~~~~~~~~~~~~-------10------10---------------|
D|-------------------------------------------------|
A|-------------------------------------------------|
D|-------------------------------------------------|

Guitar 5:
    1______________               1____________
e|---------------------------------------------|
B|-------------------6-5-3-6-5-3-6b~~~~~~~~~~~~|
G|-7b~~~~~~~~~~~~~~----------------------------|
D|---------------------------------------------|
A|---------------------------------------------|
D|---------------------------------------------|


Guitars 2 and 3: Listen for Rhythym.
e|--------|
B|--------|
G|--------|
D|----5---|
A|----3---|
D|--------|

+++++++++++++++++++++++++++++++++++++
Guitar 1: Just play this chord once, and don't let it ring out.
"Somewhere Life is good..."
e|-------------|
B|-------------|
G|-------------|
D|------7------|
A|------5------|
D|-------------|

Guitar 2: Pickslide before the next part.
e|---------------------|
B|---------------------|
G|---------------------|
D|-x/x/x/x/x/x/x/x/x/--|
A|-x/x/x/x/x/x/x/x/x/--|
D|---------------------|

+++++++++++++++++++++++++++++++++++++
Guitar 1: Listen for rhythm on the 7/9, 8/10, 10/12 octave
chords. But not the last 8/10 octave chord.
e|-----------------------------------------------------------|
B|-----------------------------------------------------------|
G|-5h/9-----9----10-----12---10------------------------------|
D|-x--x-----x-----x------x----x------------------------------|
A|-3h/7-----7-----8-----10----8------------------------------|
D|-------------------------------0-0-0-0-0-0-0-0-0-0-0-0-0-0-|
                                 ...........................

Guitar 2: Listen for Rhythm, only for the C5 (3/5) chord:
e|-------------------------------------------------|
B|-------------------------------------------------|
G|-------------------------------------------------|
D|--5---------------7------------------------------|
A|--3---------------5------------------------------|
D|---------------------0-0-0-0-0-0-0-0-0-0-0-0-0-0-|
                       ...........................

+++++++++++++++++++++++++++++++++++++
Guitar 1:
e|-15p13-----------------------------------------------|
B|-------15p13----13----13-----------------------------|
G|-------------14----12----12p10-13-12-10--------------|
D|----------------------------------------12-10-11-12~-|
A|-----------------------------------------------------|
D|-----------------------------------------------------|

Guitar 2:
e|-----------------------------------|
B|-----------------------------------|
G|-----------------------------------|
D|-----------------------------------|
A|-----------------------------------|
D|-0-0-0-0-0-0-0-0-0-0-0-0-0-0-0-0-0-|
   .................................

+++++++++++++++++++++++++++++++++++++
No Guitars on this part:
"Searching for the way..."

+++++++++++++++++++++++++++++++++++++
Guitar 1: Listen for rhythm for the chords with the ()s above them.
e|----------------------------|
B|-----------()-----()----()--|
G|-5h/9------9------10----12--|
D|-x--x------x-------x-----x--|
A|-3h/7------7-------8----10--|
D|----------------------------|

Guitar 2: Listen for Rhythm: It's just this chord C5 (3/5):
e|----|
B|----|
G|----|
D|-5--|
A|-3--|
D|----|

+++++++++++++++++++++++++++++++++++++
Guitar 1:
e|--------------------------------------------------------|
B|--------------------------------------------------------|
G|-10---------------------------------------------10---9--|
D|-x-----------------------------------------------x---x--|
A|-8-----------------------------------------------8---7--|
D|----0-0-0-0-0-0-0-0-0-0-0-0-0-0-0-0-0-0-0-0-0-0---------|
      ...........................................

Guitar 2:
e|-------------------------------------------------------|
B|-------------------------------------------------------|
G|-------------------------------------------------------|
D|-7----------------------------------------------7---5--|
A|-5----------------------------------------------5---3--|
D|---0-0-0-0-0-0-0-0-0-0-0-0-0-0-0-0-0-0-0-0-0-0---------|
     ...........................................

+++++++++++++++++++++++++++++++++++++
Guitar 1: Listen for Rhythm only for the chords with the () above them.
e|----------------------------------------------------------|
B|-()--()----()---()---()---()--()--------------------------|
G|-7----6----14---12---10---14--15---14---------------------|
D|-x----x-----x----x----x----x---x----x---------------------|
A|-5----4----12---10----8---12--13---12---------------------|
D|----------------------------------------------------------|

Guitar 2: Listen for Rhythm for the ()s chords only.
e|----------------------------------------------------------|
B|----------------------------------------------------------|
G|-()--()--()-()-()-()--()----------------------------------|
D|-3---2---7--5---3--2---3--2-------------------------------|
A|-1---0---5--3---1--0---1--0--0-0-0-0-0-0-0-0-0-0-0-0-0-0--|
D|----------------------------------------------------------|
                               ...........................

++++++++++++++++++++++++++++++++++++++
Chorus:
Guitar 1: Hit each of these notes twice (2):
e|----------------10-15-10-14-10---------------------------------10-15-10-14-10------------------|
B|-------------11----------------10---------------------------11----------------10---------------|
G|----------12----------------------11---------------------12----------------------11------------|
D|-------12----------------------------12---------------12----------------------------12---------|
A|-10-13----------------------------------12-10-9-10-13----------------------------------12-10-9-|
D|-----------------------------------------------------------------------------------------------|

Guitar 2: Listen for Rhythm for the () chords.
e|------------------------|
B|------------------------|
G|--()----()----()----()--|
D|--5-----0-----5-----0---|
A|--5-----0-----5-----0---|
D|--5-----0-----5-----0---|

++++++++++++++++++++++++++++++++++++
Guitar 1: Hit each of these notes twice (2):
e|----------------11-15-11-13-10-----------------------------9----12-9-10----13-10-------------|
B|-------------11----------------11---------------------10-----10---------11-------11----------|
G|----------12----------------------10----------10-9-------9--------------------------10-------|
D|-------13----------------------------12----12------11----------------------------------12----|
A|-10-13----------------------------------13------------------------------------------------13-|
D|---------------------------------------------------------------------------------------------|

Guitar 2: Listen for Rhythm for the () chords.
e|------------------------|
B|--------()---()-----()--|
G|--()----3-----2-----3---|
D|--1-----3-----2-----3---|
A|--1-----1-----0-----1---|
D|--1---------------------|

++++++++++++++++++++++++++++++++++++
Guitar 1: Hit each of these notes twice (2):
e|----------------10-15-10-14-10---------------------------------10-15-10-14-10------------------|
B|-------------11----------------10---------------------------11----------------10---------------|
G|----------12----------------------11---------------------12----------------------11------------|
D|-------12----------------------------12---------------12----------------------------12---------|
A|-10-13----------------------------------12-10-9-10-13----------------------------------12-10-9-|
D|-----------------------------------------------------------------------------------------------|

Guitar 2: Listen for Rhythm for the () chords.
e|------------------------|
B|------------------------|
G|--()----()----()----()--|
D|--5-----0-----5-----0---|
A|--5-----0-----5-----0---|
D|--5-----0-----5-----0---|

++++++++++++++++++++++++++++++++++++
Guitar 1: The x's under the #s are how many times you play those notes.
e|---------------------------------10-------|
B|-----10--11--10--11--13--11--13------11---|
G|-12---------------------------------------|
D|------------------------------------------|
A|-x6--x6--x4--x6--x6--x4--x6--x6--x4--x16--|
D|------------------------------------------|

Guitar 2: Same goes for the x's on this one too.
e|----------------------------------------|
B|--------------------10------10--11------|
G|-8--10--12--10--12------12---------12---|
D|----------------------------------------|
A|x6--x6--x4--x6--x6--x4--x6--x6--x4-x16--|
D|----------------------------------------|

Guitar 3:
e|----------------|
B|----------------|
G|-()---()----()--|
D|-1-----3-----5--|
A|-1-----3-----5--|
D|-1-----3-----5--|

++++++++++++++++++++++++++++++++++++
Guitar 1: There's no Guitar 1 in the second section below the (VV).
                                    VV
e|---------------------------------|--|------------------------------------|----------------|
B|------------15h/17---\15--15\11~-|--|------------15h/17--\15--15--15h/18-|-18-17---15--17-|
G|-7/15--14----x---x-----x---x--x--|--|-7/15--14----x---x----x---x---x---x-|--x--x----x---x-|
D|-x--x---x---12h/14---\12--12\-8~-|--|-x--x---x---12h/14--\12--12--12h/15-|-15-14---12--14-|
A|-5/13--12------------------------|--|-5/13--12---------------------------|----------------|
D|---------------------------------|--|------------------------------------|----------------|


Guitars 2 and 3: 
Listen for Rhythm. Each section below matches the section above.
The 5/7 chord goes with the 1st section above, and the 5/8 goes with the second section,
and the 5/7 chord goes with the 3rd section above. Same for the fourth sections.
e|----------|------------|----------|----------|
B|----------|------------|----------|----------|
G|----------|------------|----------|----------|
D|------7---|------8-----|-----7----|-----8----|
A|------5---|------5-----|-----5----|-----5----|
D|----------|------------|----------|----------|

Guitar 4:
e|-----------------------------------------------------------|
B|------------------------8---10---------------------8----10-|
G|-7h/10~~~~~~~~-7h/10-------------10~~~~~~~~7h/10-----------|
D|-----------------------------------------------------------|
A|-----------------------------------------------------------|
D|-----------------------------------------------------------|

Guitar 5:
e|--------------------------------------------------------|
B|-----------------------5----6--------------------5----6-|
G|-5h/7~~~~~~~~~-5h/7--------------7~~~~~~~~~5h7----------|
D|--------------------------------------------------------|
A|--------------------------------------------------------|
D|--------------------------------------------------------|

+++++++++++++++++++++++++++++++++++++++
Guitar 4:
     1_____________                    1___________
e|-------------------------------------------------|
B|-------------------10-8----10-8----10b~~~~~~~~~~~|
G|-10b~~~~~~~~~~~~~-------10------10---------------|
D|-------------------------------------------------|
A|-------------------------------------------------|
D|-------------------------------------------------|

Guitar 5:
    1______________               1____________
e|---------------------------------------------|
B|-------------------6-5-3-6-5-3-6b~~~~~~~~~~~~|
G|-7b~~~~~~~~~~~~~~----------------------------|
D|---------------------------------------------|
A|---------------------------------------------|
D|---------------------------------------------|


Guitars 2 and 3: Listen for Rhythym.
e|--------|
B|--------|
G|--------|
D|----5---|
A|----3---|
D|--------|

+++++++++++++++++++++++++++++++++++++++
Guitar 1: Hit this chord once.
"Sometimes when we're young..."
e|-------------|
B|-------------|
G|-------------|
D|------7------|
A|------5------|
D|-------------|

Guitar 2: Pickslide before the next part.
e|---------------------|
B|---------------------|
G|---------------------|
D|-x/x/x/x/x/x/x/x/x/--|
A|-x/x/x/x/x/x/x/x/x/--|
D|---------------------|

++++++++++++++++++++++++++++++++++++++++
Guitar 1: Listen for rhythm on the 7/9, 8/10, 10/12 octave
chords. But not the last 8/10 octave chord.
e|-----------------------------------------------------------|
B|-----------------------------------------------------------|
G|-5h/9-----9----10-----12---10------------------------------|
D|-x--x-----x-----x------x----x------------------------------|
A|-3h/7-----7-----8-----10----8------------------------------|
D|-------------------------------0-0-0-0-0-0-0-0-0-0-0-0-0-0-|
                                 ...........................

Guitar 2: Listen for Rhythm, only for the C5 (3/5) chord:
e|-------------------------------------------------|
B|-------------------------------------------------|
G|-------------------------------------------------|
D|--5---------------7------------------------------|
A|--3---------------5------------------------------|
D|---------------------0-0-0-0-0-0-0-0-0-0-0-0-0-0-|
                       ...........................

++++++++++++++++++++++++++++++++++++++++
Guitar 1:
e|-15p13-------------15---------------------------------------|
B|-------15p13----13----13------------------------------------|
G|-------------14----------12p10-13-12-10---------------------|
D|----------------------------------------12-10-11-12~~~~h/15-|
A|------------------------------------------------------------|
D|------------------------------------------------------------|

Guitar 2:
e|-----------------------------------|
B|-----------------------------------|
G|-----------------------------------|
D|-----------------------------------|
A|-----------------------------------|
D|-0-0-0-0-0-0-0-0-0-0-0-0-0-0-0-0-0-|
   .................................

+++++++++++++++++++++++++++++++++++++++++
No guitars on this part:
"So don't be too concerned..."

+++++++++++++++++++++++++++++++++++++++++
Guitar 1: Listen for rhythm for the chords with the ()s above them.
e|----------------------------|
B|-----------()-----()----()--|
G|-5h/9------9------10----12--|
D|-x--x------x-------x-----x--|
A|-3h/7------7-------8----10--|
D|----------------------------|

Guitar 2: Listen for Rhythm: It's just this chord C5 (3/5):
e|----|
B|----|
G|----|
D|-5--|
A|-3--|
D|----|

++++++++++++++++++++++++++++++++++++++++++
Guitar 1:
e|--------------------------------------------------------|
B|--------------------------------------------------------|
G|-10---------------------------------------------10---9--|
D|-x-----------------------------------------------x---x--|
A|-8-----------------------------------------------8---7--|
D|----0-0-0-0-0-0-0-0-0-0-0-0-0-0-0-0-0-0-0-0-0-0---------|
      ...........................................

Guitar 2:
e|-------------------------------------------------------|
B|-------------------------------------------------------|
G|-------------------------------------------------------|
D|-7----------------------------------------------7---5--|
A|-5----------------------------------------------5---3--|
D|---0-0-0-0-0-0-0-0-0-0-0-0-0-0-0-0-0-0-0-0-0-0---------|
     ...........................................

+++++++++++++++++++++++++++++++++++++
Guitar 1: Listen for Rhythm only for the chords with the () above them.
e|----------------------------------------------------------|
B|-()--()----()---()---()---()--()--------------------------|
G|-7----6----14---12---10---14--15---14---------------------|
D|-x----x-----x----x----x----x---x----x---------------------|
A|-5----4----12---10----8---12--13---12---------------------|
D|----------------------------------------------------------|

Guitar 2: Listen for Rhythm for the ()s chords only.
e|----------------------------------------------------------|
B|----------------------------------------------------------|
G|-()--()--()-()-()-()--()----------------------------------|
D|-3---2---7--5---3--2---3--2-------------------------------|
A|-1---0---5--3---1--0---1--0--0-0-0-0-0-0-0-0-0-0-0-0-0-0--|
D|----------------------------------------------------------|
                               ...........................

++++++++++++++++++++++++++++++++++++++
Chorus:
Guitar 1: Hit each of these notes twice (2):
e|----------------10-15-10-14-10---------------------------------10-15-10-14-10------------------|
B|-------------11----------------10---------------------------11----------------10---------------|
G|----------12----------------------11---------------------12----------------------11------------|
D|-------12----------------------------12---------------12----------------------------12---------|
A|-10-13----------------------------------12-10-9-10-13----------------------------------12-10-9-|
D|-----------------------------------------------------------------------------------------------|

Guitar 2: Listen for Rhythm for the () chords.
e|------------------------|
B|------------------------|
G|--()----()----()----()--|
D|--5-----0-----5-----0---|
A|--5-----0-----5-----0---|
D|--5-----0-----5-----0---|

++++++++++++++++++++++++++++++++++++
Guitar 1: Hit each of these notes twice (2):
e|----------------11-15-11-13-10-----------------------------9----12-9-10----13-10-------------|
B|-------------11----------------11---------------------10-----10---------11-------11----------|
G|----------12----------------------10----------10-9-------9--------------------------10-------|
D|-------13----------------------------12----12------11----------------------------------12----|
A|-10-13----------------------------------13------------------------------------------------13-|
D|---------------------------------------------------------------------------------------------|

Guitar 2: Listen for Rhythm for the () chords.
e|------------------------|
B|--------()---()-----()--|
G|--()----3-----2-----3---|
D|--1-----3-----2-----3---|
A|--1-----1-----0-----1---|
D|--1---------------------|

++++++++++++++++++++++++++++++++++++
Guitar 1: Hit each of these notes twice (2):
e|----------------10-15-10-14-10---------------------------------10-15-10-14-10------------------|
B|-------------11----------------10---------------------------11----------------10---------------|
G|----------12----------------------11---------------------12----------------------11------------|
D|-------12----------------------------12---------------12----------------------------12---------|
A|-10-13----------------------------------12-10-9-10-13----------------------------------12-10-9-|
D|-----------------------------------------------------------------------------------------------|

Guitar 2: Listen for Rhythm for the () chords.
e|------------------------|
B|------------------------|
G|--()----()----()----()--|
D|--5-----0-----5-----0---|
A|--5-----0-----5-----0---|
D|--5-----0-----5-----0---|

++++++++++++++++++++++++++++++++++++++++++
Guitar 1: The x's under the #s are how many times you play those notes.
e|---------------------------------10-------|
B|-----10--11--10--11--13--11--13------11---|
G|-12---------------------------------------|
D|------------------------------------------|
A|-x6--x6--x4--x6--x6--x4--x6--x6--x4--x16--|
D|------------------------------------------|

Guitar 2: Same goes for the x's on this one too.
e|----------------------------------------|
B|--------------------10------10--11------|
G|-8--10--12--10--12------12---------12---|
D|----------------------------------------|
A|x6--x6--x4--x6--x6--x4--x6--x6--x4-x16--|
D|----------------------------------------|

Guitar 3:
e|----------------|
B|----------------|
G|-()---()----()--|
D|-1-----3-----5--|
A|-1-----3-----5--|
D|-1-----3-----5--|

+++++++++++++++++++++++++++++++++++++++++++
Cool Sweep Picking Part:
Guitar 1:
e|-17-13----------------------------17-18-15-------------------------13-17-|
B|-------15-------------------14-17----------15-------------------15-------|
G|----------14-------------14-------------------15-------------14----------|
D|-------------15-------14-------------------------17-------15-------------|
A|----------------17-16-------------------------------16-17----------------|
D|-------------------------------------------------------------------------|

Guitar 2:
e|-13-10------------------------9/12-15----------------------------10-13-|
B|-------10------------------10---------15-11-------------------10-------|
G|----------10-------------9------------------12-------------10----------|
D|-------------12-------11-----------------------12-------12-------------|
A|----------------13-12-----------------------------13-12----------------|
D|-----------------------------------------------------------------------|

Guitar 3: Listen for rhythm.
e|----------------------|
B|----------------------|
G|()-----()----()----()-|
D|-3-----2-----8-----7--|
A|-0-----0-----5-----5--|
D|-0-----------5-----3--|

++++++++++++++++++++++++++++++++++++++++++
Sweep Picking Part Continued:
Guitar 1:
e|-18-15-------------------------13-16-17---------------------|
B|-------15-------------------15----------17-14---------------|
G|----------15-------------14-------------------14------------|
D|-------------17-------15-------------------------14---------|
A|----------------16-17-------------------------------16-17~~-|
D|------------------------------------------------------------|

Guitar 2:
e|-15----------------------------10-12-12\9------------------|
B|----15-11-------------------10------------10---------------|
G|----------12-------------10------------------9-------------|
D|-------------12-------12-----------------------11----15~~~-|
A|----------------13-12-----------------------------12-------|
D|-----------------------------------------------------------|

Guitar 3: Listen for rhythm only for the chords with the ().
e|-----------------------|
B|()----()----()---------|
G|-------------2---------|
D|-8-----7-----5-----3---|
A|-5-----5-----4-----0---|
D|-5-----3-----2-----0---|

Play the whole "Cool Sweep Picking Part" twice. Then move on.
+++++++++++++++++++++++++++++++++++++++++
Guitar 1 plays the sweep picking part twice over this.

Guitars 2: Play this part twice with the sweep picking part.
e|---------------------------------------------------------------------------------|
B|-------------------------------------------------------------------------------3-|
G|-------------------------------------------------------------------2---2-------2-|
D|-3--3----2--2-2--2--2-2--8---8-8-8-7---7-7-7--8--8-8-8-7---7-7-7---5---5---3---3-|
A|-0--0----0--0-0--0--0-0--5---5-5-5-5---5-5-5--5--5-5-5-5---5-5-5---4---4---0-----|
D|-0--0--------------------5---5-5-5-3---3-3-3--5--5-5-5-3---3-3-3---2---2---0-----|
              ...     ...

+++++++++++++++++++++++++++++++++++++++++++
Guitars 1 and 2: Listen for rhythm for the () chords.
"Never lived in fear..."
e|-----------------------------|
B|-----------------------------|
G|-----------------------------|
D|-()-----()-------------------|
A|--8-----0--------------------|
D|--8-----0-----0--2--3--3/7---|

++++++++++++++++++++++++++++++++++++++++++
Guitars 1 and 2: Listen for rhythm only for the () chord.
e|-----------------------------------|
B|---------------2-------------------|
G|---------------2-------------------|
D|-()------2-----2-------------------|
A|--8------0-----0-------0-----------|
D|--8-----------------------5--3--2--|

++++++++++++++++++++++++++++++++++++++++++
Guitar 1 plays the sweep picking part twice over this.

Guitars 2: Play this part 3 TIMES NOW, with the sweep picking part.
e|---------------------------------------------------------------------------------|
B|-------------------------------------------------------------------------------3-|
G|-------------------------------------------------------------------2---2-------2-|
D|-3--3----2--2-2--2--2-2--8---8-8-8-7---7-7-7--8--8-8-8-7---7-7-7---5---5---3---3-|
A|-0--0----0--0-0--0--0-0--5---5-5-5-5---5-5-5--5--5-5-5-5---5-5-5---4---4---0-----|
D|-0--0--------------------5---5-5-5-3---3-3-3--5--5-5-5-3---3-3-3---2---2---0-----|
              ...     ...

+++++++++++++++++++++++++++++++++++++++++++
Guitars 1 and 2: Listen for rhythm for the () chords.
"Never lived in fear..."
e|-----------------------------|
B|-----------------------------|
G|-----------------------------|
D|-()-----()-------------------|
A|--8-----0--------------------|
D|--8-----0-----0--2--3--3/7---|

Guitar 3:
     1______                             1_______     .5____________
e|------------------------------------------------------------------|
B|------------------------------------------------------------------|
G|--7b------(7)~~~----------------------7b-------(7)h/9b~~~~~~~~~~~~|
D|-----------------7~~~---------------------------------------------|
A|-----------------------8--7~~~~~5--7------------------------------|
D|------------------------------------------------------------------|

++++++++++++++++++++++++++++++++++++++++++++
Guitars 1 and 2: Listen for rhythm only for the () chord.
e|-----------------------------------|
B|---------------2-------------------|
G|---------------2-------------------|
D|-()------2-----2-------------------|
A|--8------0-----0-------0-----------|
D|--8-----------------------5--3--2--|

Guitar 3:
    1______
e|-----------------------------------------------------------------|
B|-----------------------------------------------------8/11--10~~~~|
G|-7b------(7)--------------------------------------6--------------|
D|--------------7~~~--------------------------5--8-----------------|
A|------------------8--7~~~5--7---1h/4--5--7-----------------------|
D|-----------------------------------------------------------------|

++++++++++++++++++++++++++++++++++++++++++++
Pre Ending Interlude:
Guitar 1: Play this 3 times.
e|-13--------13--------12--------12--------12--|
B|----15--------15--------15--------15---------|
G|-------14--------14--------14--------14------|
D|---------------------------------------------|
A|---------------------------------------------|
D|---------------------------------------------|

Guitar 2: listen for timing.
e|--13~----------13~-------13~-----13~--|
B|--15~----------15~-------15~------0~--|
G|--14~----------14~-------14~-----14~--|
D|---0~-----------0~--------0~------0~--|
A|---0~-----------0~--------0~------0~--|
D|---0~-----------0~--------0~------0~--|

Guitar 3:
e|-------|
B|-------|
G|-------|
D|--0~---|
A|--0~---|
D|--0~---|

Guitar 4:    
                                 1_______________
e|-------------------------------------------------------------------|
B|-------------------------------------------------------------------|
G|--7-------(7)~~~~~~~~~~~----(7)b---------------(7)*****************|
D|-------------------------------------------------------------------|
A|-------------------------------------------------------------------|
D|-------------------------------------------------------------------|

+++++++++++++++++++++++++++++++++++++++++++++
Here's the part with that annoying kid singing.
Guitar 1:
e|--------------------------------------------------------------------------|
B|-6---(6)h/18h20p18\5---(5)h/17h18p17\3---(3)h/15h17p15\13h/15h/17h/20p\6--|
G|--------------------------------------------------------------------------|
D|--------------------------------------------------------------------------|
A|--------------------------------------------------------------------------|
D|--------------------------------------------------------------------------|

Guitar 2:
e|-------------------------------------------------------------------------|
B|-------------------------------------------------------------------------|
G|-7---(7)h/14h15p14\6---(6)h/12h14p12\3---(3)h/10h12p10\9--10h/12h/15p\7--|
D|-------------------------------------------------------------------------|
A|-------------------------------------------------------------------------|
D|-------------------------------------------------------------------------|

Guitar 3:
e|-------------10-------------------9-----------------10------------------12-------|
B|-----10----------10----------10-----10--------11-------11---------13-------13----|
G|-10------10----------10----9----9------9---10----10-------10---12----12-------12-|
D|---------------------------------------------------------------------------------|
A|---------------------------------------------------------------------------------|
D|---------------------------------------------------------------------------------|

+++++++++++++++++++++++++++++++++++++++++++++++
Guitar 1:
e|-----------------------------------------------------------|
B|-(6)h/18h20p18p\5--(5)h/17h18p17p\3---(3)h/15h17p15h17p\13-|
G|-----------------------------------------------------------|
D|-----------------------------------------------------------|
A|-----------------------------------------------------------|
D|-----------------------------------------------------------|

Guitar 2:
e|-----------------------------------------------------------------------|
B|-----------------------------------------------------------------------|
G|-(7)h/14h15p14p\6--(6)h/12h14p12p\3---(3)h/10h12p10h12p\9---(9)~~~(9)\-|
D|-----------------------------------------------------------------------|
A|-----------------------------------------------------------------------|
D|-----------------------------------------------------------------------|

Guitar 3:
e|-------------10-------------------9-----------------10------------------12-------|
B|-----10----------10----------10-----10--------11-------11---------13-------13----|
G|-10------10----------10----9----9------9---10----10-------10---12----12-------12-|
D|---------------------------------------------------------------------------------|
A|---------------------------------------------------------------------------------|
D|---------------------------------------------------------------------------------|

++++++++++++++++++++++++++++++++++++++++++++++++
Guitar 1:
                                         1____
e|-------13-17-15-12----------------13-15b----(15)p13p12--13~~~~~~|
B|----13-------------13----------15-------------------------------|
G|-14-------------------12----15----------------------------------|
D|-------------------------15-------------------------------------|
A|----------------------------------------------------------------|
D|----------------------------------------------------------------|

Guitar 2:
                                    .5____
e|-------8-13-12-8--------------10-12b----(12)p10p8--10~~~~~~-|
B|----10-----------8---------11-------------------------------|
G|-10----------------9----10----------------------------------|
D|---------------------12-------------------------------------|
A|------------------------------------------------------------|
D|------------------------------------------------------------|

Guitar 3:
e|--------------------------10----------10-------10----------|
B|-10~-----5~---------11-------11----------11---------11-----|
G|-10~-----5~------10----10-------10----------10---------10--|
D|-10~-----5~------------------------------------------------|
A|--8~-----3~------------------------------------------------|
D|-----------------------------------------------------------|

++++++++++++++++++++++++++++++++++++++++++++++++
Guitar 1:
e|-10h/12-13-12/15-17-15--------------|
B|--------------------------10-15-14\-|
G|-----------------------12-----------|
D|------------------------------------|
A|------------------------------------|
D|------------------------------------|

Guitar 2:
e|-8h/9-10-9/12-13-12\----------------|
B|--------------------------10h11-10\-|
G|---------------------9-10-----------|
D|------------------------------------|
A|------------------------------------|
D|------------------------------------|

Guitar 3:
e|-9-------9------------------9------|
B|---10------10---10---10-------10---|
G|------9-------9---------9--------9-|
D|-----------------------------------|
A|-----------------------------------|
D|-----------------------------------|

+++++++++++++++++++++++++++++++++++++++++++++++
Guitar 1:
e|--------------------------------------------------------------------------|
B|-6---(6)h/18h20p18\5---(5)h/17h18p17\3---(3)h/15h17p15\13h/15h/17h/20p\6--|
G|--------------------------------------------------------------------------|
D|--------------------------------------------------------------------------|
A|--------------------------------------------------------------------------|
D|--------------------------------------------------------------------------|

Guitar 2:
e|-------------------------------------------------------------------------|
B|-------------------------------------------------------------------------|
G|-7---(7)h/14h15p14\6---(6)h/12h14p12\3---(3)h/10h12p10\9--10h/12h/15p\7--|
D|-------------------------------------------------------------------------|
A|-------------------------------------------------------------------------|
D|-------------------------------------------------------------------------|

Guitar 3:
e|-------------10-------------------9-----------------10------------------12-------|
B|-----10----------10----------10-----10--------11-------11---------13-------13----|
G|-10------10----------10----9----9------9---10----10-------10---12----12-------12-|
D|---------------------------------------------------------------------------------|
A|---------------------------------------------------------------------------------|
D|---------------------------------------------------------------------------------|

+++++++++++++++++++++++++++++++++++++++++++++++
Guitar 1:
e|-----------------------------------------------------------|
B|-(6)h/18h20p18p\5--(5)h/17h18p17p\3---(3)h/15h17p15h17p\13-|
G|-----------------------------------------------------------|
D|-----------------------------------------------------------|
A|-----------------------------------------------------------|
D|-----------------------------------------------------------|

Guitar 2:
e|-----------------------------------------------------------------------|
B|-----------------------------------------------------------------------|
G|-(7)h/14h15p14p\6--(6)h/12h14p12p\3---(3)h/10h12p10h12p\9---(9)~~~(9)\-|
D|-----------------------------------------------------------------------|
A|-----------------------------------------------------------------------|
D|-----------------------------------------------------------------------|

Guitar 3:
e|-------------10-------------------9-----------------10------------------12-------|
B|-----10----------10----------10-----10--------11-------11---------13-------13----|
G|-10------10----------10----9----9------9---10----10-------10---12----12-------12-|
D|---------------------------------------------------------------------------------|
A|---------------------------------------------------------------------------------|
D|---------------------------------------------------------------------------------|

++++++++++++++++++++++++++++++++++++++++++++++++
Guitar 1:
                                         1____
e|-------13-17-15-12----------------13-15b----(15)p13p12--13~~~~~~|
B|----13-------------13----------15-------------------------------|
G|-14-------------------12----15----------------------------------|
D|-------------------------15-------------------------------------|
A|----------------------------------------------------------------|
D|----------------------------------------------------------------|

Guitar 2:
                                    .5____
e|-------8-13-12-8--------------10-12b----(12)p10p8--10~~~~~~-|
B|----10-----------8---------11-------------------------------|
G|-10----------------9----10----------------------------------|
D|---------------------12-------------------------------------|
A|------------------------------------------------------------|
D|------------------------------------------------------------|

Guitar 3:
e|--------------------------10----------10-------10----------|
B|-10~-----5~---------11-------11----------11---------11-----|
G|-10~-----5~------10----10-------10----------10---------10--|
D|-10~-----5~------------------------------------------------|
A|--8~-----3~------------------------------------------------|
D|-----------------------------------------------------------|

++++++++++++++++++++++++++++++++++++++++++++++++
Guitar 1:
e|-10h/12-13-12/15-17-15--------------|
B|--------------------------10-15-14\-|
G|-----------------------12-----------|
D|------------------------------------|
A|------------------------------------|
D|------------------------------------|

Guitar 2:
e|-8h/9-10-9/12-13-12\----------------|
B|--------------------------10h11-10\-|
G|---------------------9-10-----------|
D|------------------------------------|
A|------------------------------------|
D|------------------------------------|

Guitar 3:
e|-9-------9------------------9------|
B|---10------10---10---10-------10---|
G|------9-------9---------9--------9-|
D|-----------------------------------|
A|-----------------------------------|
D|-----------------------------------|

++++++++++++++++++++++++++++++++++++++++++++++++
Guitar 1: Play this 3 times.
e|-13--------13--------12--------12--------12--|
B|----15--------15--------15--------15---------|
G|-------14--------14--------14--------14------|
D|---------------------------------------------|
A|---------------------------------------------|
D|---------------------------------------------|

Guitar 2: listen for timing.
e|--13~----------13~-------13~-----13~--|
B|--15~----------15~-------15~------0~--|
G|--14~----------14~-------14~-----14~--|
D|---0~-----------0~--------0~------0~--|
A|---0~-----------0~--------0~------0~--|
D|---0~-----------0~--------0~------0~--|

Please comment and rate this tab.
[travis]


***********************************
comments
print report bad tab
4 comments total. Showing first comments.
0 reply
Feathery wrote on August 31 2008, 08:31 pm

the only thing i wanted to look at was the sweep picking and it sounds like to me you nailed it

good job

0 reply
OllieSevenfold wrote on November 15 2013, 01:55 pm

Chorus is perfect! Thanks

0 reply
Syngatesfan232 wrote on March 11 2014, 01:34 pm

Which guitar is which player.

I want to post or [tab]
guest
You may want to rate the tab now too:
select rating
Please do not post tabs as comments. Select "correction" instead!