Oops, an error
Loading. Please wait.

Unbound The Wild Ride Bass Tab

version 3
version 3

Whole song

Interactive

751 views 1 this week
no commentswrite comment
1 2 3 4 5
1 last vote to show rating
add to favorites
launch autoscroll
font size
0
reset
guitar tuner
Autoscroll
slow
fast
+/-
esc
set tempo
stop
Help us to improve Ultimate-Guitar.com Take our survey!
×
Author
Difficulty
Tuning
intermediate
D A D G B E
Avenged Sevenfold - Unbound (The Wild Ride) [Avenged Sevenfold]
140 BPM - 4/4
4-string bass - Drop-D tuning (DADG)
Transcribed 100% by ear by Krakenbrau
Please send questions, comments, corrections to krakenbrau@gmail.com.

Legend:                 Timing:
\ - slide/bend down     W - whole note          W. - dotted whole note
/ - slide/bend up       H - half note           H. - dotted half note
b - bend                Q - quarter note        Q. - dotted quarter note
h - hammer-on           E - eighth note         E. - dotted eighth note
p - pull-off            S - sixteenth note      S. - dotted sixteenth note
~ - sustain             N - thirty-second note  N. - dotted thirty-second note
+ - harmonic            ' - thirty-second note triplet (3/S)
                        t - sixteenth note triplet (3/E)
                        T - eighth note triplet (3/Q)
                        T.- quarter note triplet (3/H)

'D.C' - Return to the beginning and play from there, one time.
'D.S. al Coda' - Return to the bar marked 'S' and play from there. Go to the
                 section marked 'Coda' when you see 'To Coda'.
'D.S.S' - Return to the bar marked 'SS' and play from there, one time.

Notes:
This song is fairly easy.  The trickiest part is probably switching to and back
from the triplet section in the middle.  Listen to the song, and you'll get it.
This should be pretty accurate.


Pre-Verse 1/2
G|------------------|-----------------|-----------------|
D|*-----------------|-----------------|-----------------|
A|*-----------------|-----------------|-----------------|
D|--0-00000-0-00000-|-8-88888-8-88888-|-0-00000-0-00000-|
    E SSSSE E SSSSE   E SSSSE E SSSSE   E SSSSE E SSSSE

                                                      x2| (Don't repeat
G|-----------------|-----------------|------------------|  after D.C.)
D|-----------------|-----------------|-----------------*|
A|-----------------|-3-33333-3-33333-|-3-33333-3-33333-*|
D|-8-88888-8-88888-|-----------------|------------------|
   E SSSSE E SSSSE   E SSSSE E SSSSE   E SSSSE E SSSSE

Verse 1/2
G|------------------|-----------------|-----------------|
D|*---------------5-|-----------------|---------------5-|
A|*-5~~~~~~~~-7-8---|-----------------|-5~~~~~~~~-7-8---|
D|------------------|-8~~~~~~~~-7-8-7-|-----------------|
    H      (E)E E E   H      (E)E E E   H      (E)E E E

G|-----------------|-----------------|-----------------|
D|-----------------|-----------------|-----------------|
A|-----------3-0---|-3-33333-3-33333-|-3-33333-3-33333-|
D|-8~~~~~~~~-----3-|-----------------|-----------------|
   H      (E)E E E   E SSSSE E SSSSE   E SSSSE E SSSSE

                   |                1|2
G|-----------------|-----------------|-----------------|
D|-----------------|----------------*|-----------------|
A|-5---------------|----------------*|---------5-5-3-3-|
D|---00000000000000|0000000000000000-|-00000000--------|
   E SSSSSSSSSSSSSS SSSSSSSSSSSSSSSS   SSSSSSSSE E E E
     |_____14_____| |______16______|   |___8__|

Pre-Chorus 1/2
G|-----------------|-----------------|-----------------|
D|-----------------|-----------------|-----------------|
A|-----------------|-----------------|-5-55555-3-33333-|
D|-8-88888-8-88888-|-7-77777-7-77777-|-----------------|
   E SSSSE E SSSSE   E SSSSE E SSSSE   E SSSSE E SSSSE

G|-----------------------|-----------------|------------------|
D|-----------------------|-----------------|------------------|
A|-1-11111/12-1212121212-|-----------------|------------------|
D|-----------------------|-8-88888-8-88888-|-7-77777777777777-|
   E SSSSE  E  S S S S S   E SSSSE E SSSSE   E SSSSSSSSSSSSSS
                                               |_____14_____|

Chorus 1/2
G|-----------------|----------------|----------------|----------------|
D|*----------------|----------------|----------------|----------------|
A|*----------------|----------------|----------------|----------------|
D|-5555555555555555|0000000000000000|5555555555555555|0000000000000000|
   SSSSSSSSSSSSSSSS SSSSSSSSSSSSSSSS SSSSSSSSSSSSSSSS SSSSSSSSSSSSSSSS
   |______16______|->

                  |                                                  1|
G|----------------|----------------|----------------|-----------------|
D|----------------|----------------|----------------|----------------*|
A|----------------|1111111111111111|0000000000000000|1111111111111111*|
D|1111111111111111|----------------|----------------|-----------------|
  SSSSSSSSSSSSSSSS SSSSSSSSSSSSSSSS SSSSSSSSSSSSSSSS SSSSSSSSSSSSSSSS
  |______16______|->

 |2                                |To Coda         |D.C. al Coda
G|----------------|----------------|----------------|
D|----------------|----------------|----------------|
A|----------------|----------------|----------------|
D|3333333333333333|5555555555555555|5---------------|
  SSSSSSSSSSSSSSSS SSSSSSSSSSSSSSSS S
  |______16______|->

 |Coda (Interlude)
G|----------------|--------------------------|-------------------------------|
D|----------------|*-------------------------|-------------------------------|
A|----------------|*5~~-7-8~~-5-7~~-8-10~~-7-|-10~~-12-13~~-10-8~~-10-12~~-8-|
D|5555555555555555|--------------------------|-------------------------------|
  SSSSSSSSSSSSSSSS  T(T)T T(T)T T(T)T  T(T)T    T(T) T  T(T) T T(T) T  T(T)T
  |______16______|

G|-------------------------------|---------------------------|
D|-------------------------------|--------------------------*|
A|-10~~-12-13~~-10-8~~-10-12~~-8-|-7~~-8-10~~-7-5~~-5-5~~-5-*|
D|-------------------------------|---------------------------|
    T(T) T  T(T) T T()T T  T(T)T   T(T)T  T(T)T T(T)T T(T)T

Bridge Verse 1/2
 |S
G|--------------------------|-------------------------|-------------------------|
D|*-------------------------|-------------------------|-------------------------|
A|*-------------------------|-------------------------|-------------------------|
D|--0~~-0-0-0~~-7~~-7-7-7~~-|-5~~-5-5-5~~-3~~-3-3-3~~-|-5~~-5-5-5~~-3~~-3-3-3~~-|
    T(T)T T T(T)T(T)T T T(T)  T(T)T T T(T)T(T)T T T(T)  T(T)T T T(T)T(T)T T T(T)

                          x2|Bridge Chorus 1/2
G|--------------------------|-----------------|-----------------|
D|-------------------------*|-----------------|-----------------|
A|-------------------------*|-----------------|-----------------|
D|-2~~-2-2-2~~-0~~-0-0-0~~--|-8~~-8-8-8-8~~-8-|-8~~-8-8-8-8~~-8-|
   T(T)T T T(T)T(T)T T T(T)   Q   E E E Q   E   Q   E E E Q   E

G|-----------------|-----------------|-----------------|-----------------|
D|-----------------|-----------------|-----------------|-----------------|
A|-----------------|-----------------|-----------------|-----------------|
D|-0~~-0-0-0-0~~-0-|-0~~-2~~-3~~-7~~-|-8~~-8-8-8-8~~-8-|-8~~-8-8-8-8~~-8-|
   Q   E E E Q   E   Q   Q   Q   Q     Q   E E E Q   E   Q   E E E Q   E

                                     |D.S.
G|-----------------|-----------------|-----------------|-----------------|
D|-----------------|-----------------|-----------------||_______7_______||
A|-----------------|-----------------|-----------------||               ||
D|-7~~~~~~-7~~~~~~-|-7~~-5~~-3~~-2~~-|-0~~~~~~~~~~~~~~~|~~~~~>-----------|
   H       H         Q   Q   Q   Q     W                (Rest 7 measures)

Outro Verse
 |SS                                                                     x2|
G|------------------|-----------------|-----------------|------------------|
D|*-----------------|-----------------|-----------------|-----------------*|
A|*-5~~-5~~~~-5-5-5-|-----------------|-----------------|-3~~-3~~~~-3-3-3-*|
D|------------------|-7~~-7~~~~-7-7-7-|-8~~-8~~~~-8-8-8-|------------------|
    Q   Q.    E E E   Q   Q.    E E E   Q   Q.    E E E   Q   Q.    E E E

G|-------------------|-----------------|------------------|-----------------|
D|-------------------|-----------------|------------------|-----------------|
A|-8~~~~~~-----------|-----------------|------------------|-----------------|
D|----------10~~~~~~-|-8~~-8~~~~~~~~-8~|~~-8-8~~~~~~-8-10-|-7~~-7~~~~~~~~-7~|
   H         H         Q   H      (E)E  (E)E H       E  E   Q   H      (E)E

                  |D.S.S.
G|----------------|--------------|-------------|--------------|------------|
D|----------------|--------------|-------------|--------------|------------|
A|----------------|--------------|-------------|--------------|------------|
D|~~-7-7~~~~~~~~~-|-0~~~~~~~~~~~-|-------------|-0~~~~~~~~~~~-|------------|
  (E)E H.           W                            W

G|----------------|--------------|-------------|--------------||
D|----------------|--------------|-------------|--------------||
A|----------------|--------------|-------------|--------------||
D|-0~~~~~~~~~~~~~-|--------------|-------------|--------------||
   W
Suggest correction
Give kudos to tab author, rate the tab!
1 2 3 4 5
comments
print report bad tab
guest
You may want to rate the tab now too:
select rating
Wanna post a correction for this tab? Suggest correction