Oops, an error
Loading. Please wait.

Unholy Confessions Bass Tab

version 3
19,270 views 1 this week
2 commentsread comments
1 2 3 4 5
x 6
add to favorites
launch autoscroll
font size
0
reset
guitar tuner
Autoscroll
slow
fast
+/-
esc
set tempo
stop
Help us to improve Ultimate-Guitar.com Take our survey!
×
Author
-------------------------------------------------------------------------------
		   Unholy Confessions - Avenged Sevenfold
-------------------------------------------------------------------------------

Tabbed By : not listening
e-mail: david-p-2@hotmail.com

Tuning:DADG

INTRO

G|------------|---------|------------|---------------|
D|------------|---------|------------|---------------|
A|------------|---------|------------|---------------|
D|-0-0--------|---------|-0-0--------|-8-8---7-7-----|

PRE-VERSE

G|-------------------------------------------------------|  |-----------|
D|o----------2--3--5--3--2-------5--3--2-----2--3-------o|  |-----------|
A|o-------5----------------3--1-----------0-------4-----o|  |-----------|
D|-0--0--------------------------------------------------|x4|-1-1---0-0-|

VERSE

G|------------------------------|
D|---------------7-7-5-5-2-2-3--|
A|-5-5-5-5-5--------------------|
D|-----------0------------------|

G|----------------------------|----------------------------|
D|-------------2-2-3-3-0-0----|--------------7-7-5-5-2-2-3-|
A|-1-1-1-1-1-3-------------3--|-5-5-5-5-5------------------|
D|----------------------------|-----------0----------------|

G|---------------------------|-----------------------------|
D|-------------2-2-3-3-0-0---|-----------------------------|
A|-1-1-1-1-1-3-------------3-|-5-5-5-5-5-----------------1-|
D|---------------------------|-----------0-0-0-0-0-0-3-3---|

G|---------------------------|
D|-------------2-2-3-3-0-0---|
A|-1-1-1-1-1-3-------------3-|
D|---------------------------|

PRE-CHORUS

G|----------------|----------------|
D|o---------------|---------------o|
A|o---------------|---------------o|
D|--0-0---00000---|-0-0---00000----|x4

CHORUS
$
G|---------------|---------------------|---------------|------------------|
D|---------------|---------3-2h3p2-0---|---------------|------------------|
A|-5-5---------3~|~--3-3-3-----------3-|-------------1~|~--1-1-1-1-1-1-1--|
D|------0--2-3---|---------------------|-3-3--3--3-3---|------------------|

G|--------------|---------------------|
D|--------------|---------3-2h3p2-0---|
A|-5-5--------3~|~--3-3-3-----------3-|
D|-----0--2-3---|---------------------|

G|---------------|------------------------------|
D|---------------|------------------------------|
A|-------------1~|~--1-1-1-1/13-13-13-13-13-13--|
D|-3-3--3--3-3---|------------------------------|

                                        To Coda
G|-------------|-----------------|-------------|----------------|
D|-------------|-----------------|-------------|------------3-2-|
A|-5-5-------3~|~--3-3-3-3-3-3-3-|-------------|----------------|
D|-----0-2-3---|-----------------|-3-3--3--3-3-|-5-5--3---3-----|

BRIDGE

G|-----------------|---------------|-------------|-----------------|
D|-3-----------2-3-|-2-------------|-------------|------------3-2--|
A|-----5-4-5-------|-----4-3-4--0--|-1--4--3--1--|-0--4-3-4--------|
D|-----------------|---------------|-------------|-----------------|

G|-----------------|---------------|-------------|--------------|
D|-3-----------2-3-|-2-------------|-------------|--------------|
A|-----5-4-5-------|-----4-3-4--0--|-1--4--3--1--|-0---4-3-4----|
D|-----------------|---------------|-------------|--------------|

RE-INTRO

G|----------|----------|------------|---------------|
D|----------|----------|------------|---------------|
A|----------|----------|------------|---------------|
D|-0--------|----------|-0-0--------|-8-8---7-7-----|

G|-----------------------|---------------------|
D|-------2--3--5--3--2---|---5--3--2---2--3----|
A|-----5---------------3-|-1----------0------4-|
D|-0-0-------------------|---------------------|

BREAKDOWN

G|-----------------|-----------------|-----------------|
D|-----------------|-----------------|-----------------|
A|-----------------|-----------------|-----------------|
D|-0-0-0-0-0-0-0-0-|-0-0-0-0-0-0-0-0-|-0-0-0-0-0-0-0-0-|

G|---------------------|--------------------|------------------|
D|---------------------|--------------------|------------------|
A|---------------------|--------------------|------------------|
D|-0-/12-11-0-10-9-8-0-|-7-0-6-5-0-/12-11-0-|-10-9-8-0-7-0-6-5-|

PRE-CHORUS

G|-----------------|------------------|
D|o----------------|-----------------o|
A|o----------------|-----------------o|
D|--0-0---00000----|-0-0---00000------|x4


                           D.S. al Coda
G|-----------------------|--------------|
D|-----------------------|--------------|
A|-----------------------|---------7-4--|
D|-0-5b6--0-5b6--0-4b4.5r|=--0-3-0------|

&
Coda
G|--------------|-----|
D|--------------|-----|
A|--------------|-----|
D|-5-5--3~------|-----|

OUTRO
                                       x4
G|------------------|------------------||--------*|
D|o-----------------|-----------------o||--------*|
A|o-----------------|-----------------o||--------*|
D|--0-0---00000-----|-0-0---00000------||-0-0----*|

Legend
h	-hammer on
p	-pull off
b	-bend
r	-release bend
=	-hold bend
/	-slide up
\	-slide down
||o	-repeat start
o||	-repeat end
$	-segno
Suggest correction
comments
print report bad tab
2 comments total.
0 reply
randomhero93 80 Apr 04, 2009 06:01 PM

i'll give you a 4. a lot of it is correct but the intro's a little off.

0 reply
Sophieduck 10 Jun 19, 2011 09:53 AM

Seems pretty good to me, thanks! :)

guest
You may want to rate the tab now too:
select rating
Wanna post a correction for this tab? Suggest correction