Oops, an error
Loading. Please wait.

Unholy Confessions Tab

24,602 views 3 this week
14 commentsread comments
1 2 3 4 5
accurate
x 20
add to favorites
launch autoscroll
font size
0
reset
how to read this tab
guitar tuner
Autoscroll
slow
fast
+/-
esc
set tempo
stop
Help us to improve Ultimate-Guitar.com Take our survey!
×
----------------------------------------------------------------------------
               unholy confessions - avenged sevenfold
----------------------------------------------------------------------------
Tabbed by:brian roberts
Email:

Tuning:drop D

intro (guitar 1)
e|-------------------------------------------------------------------|
B|-------------------------------------------------------------------|
G|-------------------------------------------------------------------|
D|-------------------------------------------------------------------|
A|----5-0-7-0-8-0-10-0-8-0-7h8p7-------10-0-8-0-7~----7-0-8-0--------|
D|-00----------------------------10-88-------------77---------10~----|

e|-------------------------------------------------------------------|
B|-------------------------------------------------------------------|
G|-------------------------------------------------------------------|
D|-------------------------------88-77-------------------------------|
A|----5-0-7-0-8-0-10-0-8-0-7h8p7-88-77-------------------------------|
D|-00----------------------------88-77-------------------------------|

intro (guitar 2)
e|-------------------------------------------------------------------|
B|-------------------------------------------------------------------|
G|-------------------------------------------------------------------|
D|-00-3-0-5-0-7-0-8-0-7-0------8-0-7-0-5~-----5-0-7-0-7~-------------|x3
A|------------------------8------------------------------------------|
D|--------------------------88------------77-------------------------|

e|-------------------------------------------------------------------|
B|-------------------------------------------------------------------|
G|-------------------------------------------------------------------|
D|-00-3-0-5-0-7-0-8-0-7-0---88-77------------------------------------|
A|------------------------8-88-77------------------------------------|
D|--------------------------88-77------------------------------------|

verse (both guitars)
e|-------------------------------------------------------------------|
B|-------------------------------------------------------------------|
G|---------------7-777---3h5-5-3p2-2h3-3-333-5-----------------------|
D|-5h7-7-5p3-3h5-7-777-0---------------3-333-5-----------------------|x2
A|---------------5-555-0---------------1-111-3-----------------------|
D|---------------------0---------------------------------------------|

e|-------------------------------------------------------------------|
B|-------------------------------------------------------------------|
G|-7777-7-7777-7-7777-3333-3-5555-5-55-5-----------------------------|
D|-7777-7-7777-7-7777-3333-3-5555-5-55-5-----------------------------|
A|-5555-5-5555-5-5555-1111-1-3333-3-33-3-----------------------------|
D|-------------------------------------------------------------------|
   PM..   ....   .... ....   ....   .. 

e|-------------------------------------------------------------------|
B|-------------------------------------------------------------------|
G|-7-777---3h5-5-3p2-2h3-3-333-5-------------------------------------|
D|-7-777-0---------------3-333-5-5h7-7-5p3-3h5-----------------------|
A|-5-555-0---------------1-111-3-------------------------------------|
D|-------0-----------------------------------------------------------|

pre-chorus (guitar 1)
e|-------------------------------------------------------------------|
B|-------------------------------------------------------------------|
G|-------------------------------------------------------------------|
D|-00-00000----------------------------------------------------------|x8
A|-00-00000----------------------------------------------------------|
D|-00-00000----------------------------------------------------------|
   PM .....

pre-chorus (guitar 2) wait 4 times the come in
e|-------------------------------------------------------------------|
B|-------------------------------------------------------------------|
G|-------------------------------------------------------------------|
D|-------------------------------------------------------------------|x2
A|-00-7-0-8-00-8-0-7-0-5-0-4~-00-7-0-8-0-10-0-12-0-10h12-14~---------|
D|-------------------------------------------------------------------|

chorus (both guitars)
e|-------------------------------------------------------------------|
B|-------------------------------------------------------------------|
G|-777-------5555----------------------5555555/7---------------------|
D|-777-0-2-3-5555-2h3-2h3p2p0---3-3333-5555555/7---------------------|
A|-555-0-2-3-3333-------------3-3-3333-3333333/5---------------------|
D|-----0-2-3--------------------3-3333-------------------------------|

e|-------------------------------------------------------------------|
B|-------------------------------------------------------------------|
G|-777-------55555555------------------------------------------------|
D|-777-0-2-3-55555555-3-3333-5-5555----------------------------------|x2
A|-555-0-2-3-33333333-3-3333-5-5555----------------------------------|
D|-----0-2-3----------3-3333-5-5555----------------------------------|

bridge
e|-------------------------------------------------------------------|
B|-------------------------------------------------------------------|
G|-------------------------------------------------------------------|
D|-------------------------------------------------------------------|
A|-8h10/12-8h10p8-7h8/10-7h8p7-4-5/8-7-5-4-7h8p7---------------------|
D|-------------------------------------------------------------------|

re-intro (guitar 1)
e|-------------------------------------------------------------------|
B|-------------------------------------------------------------------|
G|-------------------------------------------------------------------|
D|-------------------------------------------------------------------|
A|----5-0-7-0-8-0-10-0-8-0-7h8p7-------10-0-8-0-7~----7-0-8-0--------|
D|-00----------------------------10-88-------------77---------10~----|

e|-------------------------------------------------------------------|
B|-------------------------------------------------------------------|
G|-------------------------------------------------------------------|
D|-------------------------------88-77-------------------------------|
A|----5-0-7-0-8-0-10-0-8-0-7h8p7-88-77-------------------------------|
D|-00----------------------------88-77-------------------------------|

verse (guitar 1)
e|-------------------------------------------------------------------|
B|-------------------------------------------------------------------|
G|-------------------------------------------------------------------|
D|-------------------------------------------------------------------|x4
A|----5-0-7-0-8-0-10-0-8-0-7h8p7-------10-0-8-0-7~----7-0-8-0--------|
D|-00----------------------------10-88-------------77---------10~----|

verse (guitar 2)
e|-------------------------------------------------------------------|
B|-------------------------------------------------------------------|
G|-------------------------------------------------------------------|
D|-00-3-0-5-0-7-0-8-0-7-0------8-0-7-0-5~-----5-0-7-0-7~-------------|x4
A|------------------------8------------------------------------------|
D|--------------------------88------------77-------------------------|

both guitars (palm muted)
e|-------------------------------------------------------------------|
B|-------------------------------------------------------------------|
G|-------------------------------------------------------------------|
D|-0-0-0-0-0-0-0-0-0-0-0-0-0-0-0-0-0-0-0-0-0-0-0-0-------------------|
A|-0-0-0-0-0-0-0-0-0-0-0-0-0-0-0-0-0-0-0-0-0-0-0-0-------------------|
D|-0-0-0-0-0-0-0-0-0-0-0-0-0-0-0-0-0-0-0-0-0-0-0-0-------------------|

both guitars
e|-------------------------------------------------------------------|
B|-------------------------------------------------------------------|
G|-------------------------------------------------------------------|
D|-0-12-11-0-10-9-8-0-7-0-7-6----------------------------------------|
A|-0-12-11-0-10-9-8-0-7-0-7-6----------------------------------------|
D|-0-12-11-0-10-9-8-0-7-0-7-6----------------------------------------|

pre-chorus (guitar 1)
e|-------------------------------------------------------------------|
B|-------------------------------------------------------------------|
G|-------------------------------------------------------------------|
D|-00-00000----------------------------------------------------------|x8
A|-00-00000----------------------------------------------------------|
D|-00-00000----------------------------------------------------------|
   PM .....

pre-chorus (guitar 2) wait 4 times the come in
e|-------------------------------------------------------------------|
B|-------------------------------------------------------------------|
G|-------------------------------------------------------------------|
D|-------------------------------------------------------------------|x2
A|-00-7-0-8-00-8-0-7-0-5-0-4~-00-7-0-8-0-10-0-12-0-10h12-14~---------|
D|-------------------------------------------------------------------|

guitar 1
e|----------|  |---------------------------------------------------------|
B|----------|  |---------------------------------------------------------|
G|----------|  |---------------------------------------------------------|
D|-00-00000-|x4|---------------------------------------------------------|
A|-00-00000-|  |-----------------7-4-------------------------------------|
D|-00-00000-|  |-0-4^-0-4^-0-2-0-----------------------------------------|
   PM .....

guitar 2
e|---------------------------|  |----------------------------------------|
B|---------------------------|  |----------------------------------------|
G|---------------------------|  |----------------------------------------|
D|---------------------------|x4|----------------------------------------|
A|---------------------------|  |-----------------7-4--------------------|
D|-0-11^-0-9^-0-7^-0-5^-0-4^-|  |-0-4^-0-4^-0-2-0------------------------|

chorus (both guitars)
e|-------------------------------------------------------------------|
B|-------------------------------------------------------------------|
G|-777-------5555----------------------5555555/7---------------------|
D|-777-0-2-3-5555-2h3-2h3p2p0---3-3333-5555555/7---------------------|
A|-555-0-2-3-3333-------------3-3-3333-3333333/5---------------------|
D|-----0-2-3--------------------3-3333-------------------------------|

e|-------------------------------------------------------------------|
B|-------------------------------------------------------------------|
G|-777-------55555555------------------------------------------------|
D|-777-0-2-3-55555555-3-3333-5-5555----------------------------------|x2
A|-555-0-2-3-33333333-3-3333-5-5555----------------------------------|
D|-----0-2-3----------3-3333-5-5555----------------------------------|

guitar 1
e|----------|  
B|----------|  
G|----------|  
D|-00-00000-|x8
A|-00-00000-|  
D|-00-00000-|  
   PM .....

guitar 2
e|---------------------------|  
B|---------------------------|  
G|---------------------------|  
D|---------------------------|x8
A|---------------------------|  
D|-0-11^-0-9^-0-7^-0-5^-0-4^-|  

| /  slide up
| \  slide down
| h  hammer-on
| p  pull-off
| ~  vibrato
| +  harmonic
| x  Mute note

ummm my screenname is punkguitarist360 if u feel chatting with me or sumthin
===============================================================================
Suggest correction
comments
print report bad tab
14 comments total. Showing first comments.
-1 reply
PunkRawk1224 40 wrote on August 5 2004, 12:00 am

great, here come the fuse fans

0 reply
kiefermatot 10,367 wrote on July 13 2005, 12:00 am

this is the only right version

0 reply
damon-mortsde 21 wrote on July 20 2005, 12:00 am

i dont think its in drop d

guest
You may want to rate the tab now too:
select rating
Wanna post a correction for this tab? Suggest correction