Oops, an error
Loading. Please wait.
We have an official Unholy Confessions tab made by UG professional guitarists. Check out the tab »
×
3,904 views 3 this week
1 commentread comment
1 2 3 4 5
x 6
add to favorites
×
Save as Personal and add changes to this tab that will be seen only by you. Learn more ›
launch autoscroll
font size
0
reset
guitar tuner
backing track
0:00
0:00
Autoscroll
slow
fast
+/-
esc
set tempo
stop
Difficulty
Tuning
intermediate
D A D G
-----------------------------------------------------------------------------
			     Unholy Confessions
                             Avenged Sevenfold
                             Waking The Fallen

             (R.I.P. Jimmy "The Reverend Tholomew Plague" Sullivan)
-----------------------------------------------------------------------------

Tabbed By : Eeyore
email: slipknotjessemaggot9@yahoo.com
Myspace: myspace.com/slipknotjesse

I'm 98% sure that this is completely right.
This is my first tab so if anything I might have
the picking pattern on the 1st verse, or the chorus wrong.
If you notice anything at all wrong, or want
to comment, just contact me on my Myspace.
If you don't have a Myspace then use my email.

Tuning: Drop D (Low to High D,A,D,G)


Intro

G|----------------------------|
D|----------------------------|
A|----------------------------|
D|-0-0------------8-8---7-7---|

G|---------------------------------------------------------------|
D|---------------------------------------------------------------|
A|------5----7---8---10---7h8p7---------10---8---7-----7---8-----|
D|--0-0----0---0---0----0-------10--8-8----8---8---7-7---7---10--|
pm         -   -   -   -                   -   -         -

G|--------------------------------------------|
D|--------------------------------------------|
A|------5----7---8---10---7h8p7---------------|
D|--0-0----0---0---0---0--------10--8-8--7-7--|
pm         -   -   -   - 

Verse

G|------------------------------------|-----------------------------|
D|------------------------------------|-----------------------------|
A|--5--5-5-5-----15\12-12\10-10/12-12-|--1--1-1-1--3--10/12-12\8-8--| x2
D|------------0-----------------------|-----------------------------|

G|------------------------------------------------------------------|
D|------------------------------------------------------------------|
A|--5-5-5-5-5--5-5-5-5-5--5-5-5-------------------------------------|
E|-------------------------------5-7-8-8-8-8-8--10-10-10--10-10-10--|
pm  - - - -    - - - -    - -    - - - - - -    - -       -  -  

G|------------------------------------|
D|------------------------------------|
A|--5--5-5-5-----15\12-12\10-10/12-12-|
D|------------0-----------------------|


Pre-chorus

G|-------------------|
D|-------------------|
A|-------------------| x8
D|--0-0---0-0-0-0-0--|
pm  - -   - - - - -


Chorus

G|--------------------------------------------------------------------|
D|-------------------3-2h3p2------------------------------------------|
A|--5---------3--3-3---------3-0---------------1--1--1--1-1-1--1-1-1--|
D|-----0--2-3--------------------3--3-3--3-3-------------------------| \
                                                                         x2
G|--------------------------------------------------------------------| /
D|--------------------------------------------------------------------|
A|--5---------3--3-3--3-3-3--3-3--------------------------------------|
D|-----0--2-3---------------------3--3-3--3-3-5--3-3------------------|


Bridge

G|--------------------------------------------------|
D|--------------------------------------------------|
A|--8-7-8--4-3-4--7-8-7--3-4-3--0-1-4-3-1-0--4-3-4--|
D|--------------------------------------------------|


Intro Revisit/Verse

G|----------------------------|
D|----------------------------|
A|----------------------------|
D|-0-0------------8-8---7-7---|

G|---------------------------------------------------------------|
D|---------------------------------------------------------------|
A|------5----7---8---10---7h8p7---------10---8---7-----7---8-----| x4
D|--0-0----0---0---0---0--------10--8-8----8---8---7-7---7---10--|
pm         -   -   -   -                   -   -         -

G|--------------------------------------------------|
D|--------------------------------------------------|
A|--------------------------------------------------|
D|-0-0-0-0-0-0-0-0-0-0-0-0-0-0-0-0-0-0-0-0-0-0-0-0--|
pm - - - - - - - - - - - - - - - - - - - - - - - -


Breakdown

G|------------------------------|
D|------------------------------|
A|------------------------------| x2
D|-0-/12-11-0-10-9-8-0-7-0-6-5--|


Pre-chorus

G|-------------------|
D|-------------------|
A|-------------------| x8
D|--0-0---0-0-0-0-0--|
pm  - -   - - - - -


Refrain

G|--------------------------|
D|--------------------------|
A|--------------------------| x4
D|-0-12--0-10--0-9-0-7-0-5--|

G|--------------------------------|
D|--------------------------------|
A|-------------------------/7--4--|
D|-0-5b--0-5b--0-5b--0-4-0--------|


Chorus

G|--------------------------------------------------------------------|
D|-------------------3-2h3p2------------------------------------------|
A|--5---------3--3-3---------3-0---------------1--1--1--1-1-1--1-1-1--|
D|-----0--2-3--------------------3--3-3--3-3-------------------------| \
                                                                         x2
G|--------------------------------------------------------------------| /
D|--------------------------------------------------------------------|
A|--5---------3--3-3--3-3-3--3-3--------------------------------------|
D|-----0--2-3---------------------3--3-3--3-3-5--3-3------------------|


Outro

G|--------------------------|     |-------|
D|--------------------------|     |-------|
A|--------------------------| x8  |-------|
D|-0-12--0-10--0-9-0-7-0-5--|     |--0-0--|



|  /   slide up
|  \   slide down
|  h   hammer-on
|  p   pull-off
|  b   bend
|  pm  palm mute
|  ~   vibrato
|  +   harmonic
|  x   Mute note
=============================================================================
Suggest correction
comments
print report bad tab
1 comment total.
-2 reply
jrcsgtpeppers 201 Oct 01, 2010 12:00 PM

lol who plays a7x on the bass?
good tab anyway

guest
You may want to rate the tab now too:
select rating
Wanna post a correction for this tab? Suggest correction