Oops, an error
Loading. Please wait.

Unholy Confessions Tab

4,678 views 15 this week
3 commentsread comments
1 2 3 4 5
worth learning
x 4
add to favorites
launch autoscroll
font size
0
reset
how to read this tab
guitar tuner
Autoscroll
slow
fast
+/-
esc
set tempo
stop
Help us to improve Ultimate-Guitar.com Take our survey!
×
Contributor
Avenged Sevenfold - Unholy Confessions

Tuning - Drop D (DADGBe)






e|-----------------------------------------------------------------------|
B|-----------------------------------------------------------------------|
G|-----------------------------------------------------------------------|
D|-----------------------------------------------------------------------|
A|-----5---7---8---10---8---7h8p7------------10---8---7~-----7---8-------|
D|-0-0---0---0---0----0---0-------10~----8-8----8---8----7-7---7---7-10~-|x3 

e|--------------------------------------------------------------|
B|--------------------------------------------------------------|
G|--------------------------------------------------------------|
D|------------------------------------------------5-5s7-7s3-3s2-|
A|-----5---7---8---10---8---7h8p7-------8-8--7-7----------------|
D|-0-0---0---0---0----0---0-------10~---8-8--7-7----------------|

e|----------------------------------------------------------||
B|----------------------------------------------------------||
G|---------------5-5-3-3-2-2h3------------------------------||
D|--7--7-7---------------------3--3-3-----5--5-5s7-7s3-3s2--||
A|--5--5-5-5-5-0---------------1--1-1-1-1-3-----------------||
D|-------------0--------------------------------------------||x2
PM         . .                        . . 

e|--------------------------------|------------------------------|
B|--------------------------------|------------------------------|
G|--------------------------------|------------------------------|
D|----------7---------------------|---------3----------5-----5---|
A|--5-5-5-5-5-------------------1-|-1-1-1-1-1--3-3-3-3-3-3-3-3---|
D|-------------0-0-0-0-0--0-3-3---|------------------------------|
PM  . . . .    . . . . .  . . . .   . . . .    . . . .   . . 

e|----------------------------------------------------------|
B|----------------------------------------------------------|
G|---------------5-5-3-3-2-2h3------------------------------|
D|--7--7-7---------------------3--3-3-----5--5-5s7-7s3-3s2--|
A|--5--5-5-5-5-0---------------1--1-1-1-1-3-----------------|
D|-------------0--------------------------------------------|
PM         . .                        . .

e|----------------------||
B|----------------------||
G|----------------------||
D|----------------------||
A|----------------------||
D|-0--0---0-0-0-0-0-----||x4
PM .  .   . . . . .

e|---------------------------------|--------------------------------||
B|---------------------------------|--------------------------------||
G|---------------------------------|--------------------------------||
D|---------------------------------|----------------------------[9~]|| [pinch harmonic] 
A|-----7---8-----7---8-----5---4~--|-----7---8---12---13---12-------||
D|-0-0---0---0-0---0---0-0---0-----|-0-0---0---0----0----0----0-----||x2
PM . .   .   . .   .   . .   .       . .   .   .    .    .    .


e|------------------|-------------------|-------------------|-----------------|
B|------------------|-------------------|-------------------|-----------------|
G|------------------|-------------------|-------------------|-----------------|
D|-7--7-----------5-|---5---3-2h3p2-----|-----------------3-|---3---3-----3---|
A|-5--5-5--0------3-|-3-3-3---------5-3-|-3--3---3---3-3--1-|-1-1-1-1-1-1-1-1-|
D|---------0--2-3---|-------------------|-3--3-3-3---3-3----|-----------------|
PM      .                                      .

e|------------------|---------------|--------------|--------------|
B|------------------|---------------|--------------|--------------|
G|------------------|---------------|--------------|--------------|
D|-7--7-----------5-|---5---5---5---|--------------|--------------|
A|-5--5-5-0-------3-|-3-3-3-3-3-3-3-|-3----3---3-3-|-5----5-------|
D|--------0---2-3---|---------------|-3--3-3---3-3-|-5--5-0-------| Tab1|Tab2
PM      .                                .              .

e|------|--------------------|-----------------|-----------|---------------||
B|------|--------------------|-----------------|-----------|---------------||
G|------|--------------------|-----------------|-----------|---------------||
D|-/7-5-|-7~---3-2-3~---/5-7-|-5~---2-0-2~-----|-----------|------3-2-3~---||
A|------|--------------------|-------------/4--|-5-8-7-5b6-|-4~------------||
D|------|--------------------|-----------------|-----------|---------------|| x2


e|-----------------||
B|-----------------||
G|---------[x3]---.||
D|----------------.||
A|-0-0-0-0-0-0-0-0-||
D|-0-0-0-0-0-0-0-0-|| 
PM . . . . . . . .

e|--------------------|-------------------|------------------||
B|--------------------|-------------------|------------------||
G|--------------------|-------------------|------------------||
D|--------------------|-------------------|------------------||
A|-0-12-11-0-10-9-8-0-|-7-0-6-5-0-12-11-0-|-10-9-8-0-7-0-6-5-||
D|-0-12-11-0-10-9-8-0-|-7-0-6-5-0-12-11-0-|-10-9-8-0-7-0-6-5-||
PM 


e|----------------------------------------|---------------------|---------------||
B|----------------------------------------|---------------------|---------------||
G|---------------------------------------.|---------------------|---------------||
D|------------------------------[x4]-----.|---------------------|-------5s2-2---||
A|----------------------------------------|---------------------|-------7s4-4---||
D|-0-11b12--0-10b11--0-9b10--0-7b8-0-5b6--|-0-5b6--0-5b6--04b5--|-0-3-0---------||

e|-----||
B|-----||
G|-----||
D|-----||
A|-0-0-||
D|-0-0-||
PM . .
Suggest correction What's this?
You can suggest a correction to this tab. Community and Mods will review your correction and vote to approve or reject it.
comments
print report bad tab
3 comments total.
0 reply
randomhero93 707 wrote on March 31 2009, 01:50 pm

eh... it's a decent try, but a lot isn't correct. 2 stars.

0 reply
zkittlis 18 wrote on April 30 2009, 01:02 pm

good try
but not correct
the solo is alot easier then that
and your chorus is a little wierd
the bridge is off too
but good try
2 stars

-1 reply
zkittlis 18 wrote on May 4 2009, 11:08 am

took another look
its almost 100% wrong
sry

I want to post or [tab]
guest
You may want to rate the tab now too:
select rating
Please do not post tabs as comments. Select "correction" instead!