Oops, an error
Loading. Please wait.

Unholy Confessions Tab

36,036 views 54 this week
8 commentsread comments
1 2 3 4 5
x 18
add to favorites
launch autoscroll
font size
0
reset
how to read this tab
guitar tuner
Autoscroll
slow
fast
+/-
esc
set tempo
stop
Help us to improve Ultimate-Guitar.com Take our survey!
×
Author
Difficulty
Tuning
intermediate
D A D G B E
Tabbed by: th_brck_rcks
Tuning: Drop D (D-A-D-G-B-E)

[Intro]
E|----------------------------------------------------------------|
B|----------------------------------------------------------------|
G|----------------------------------------------------------------|
D|----------------------------------------------------------------|
A|----5-0-7-0-8-0-10-0-8-0-7h8p7--------10-0-8-0-7~----7-0-8-0----|
D|0-0----------------------------10~8-8------------7-7---------10~|          
  + +                               + +            + +            
                                                                  
E|----------------------------------------------------------------|
B|----------------------------------------------------------------|
G|----------------------------------------------------------------|
D|----------------------------------------------------------------|
A|0-0-------------------------------------------------------------|
D|0-0-------------------------------------------------------------|
  + +                                                             

E|--------------------------------------------|
B|--------------------------------------------|
G|--------------------------------------------|
D|--------------------------------------------|
A|----5-0-7-0-8-0-10-0-8-0-7h8p7----8-8--7-7--|
D|0-0----------------------------10~8-8--7-7--|
  + +                                         

E|--------------------------------------------|
B|--------------------------------------------|
G|--------------------------------------------|
D|--------------------------------------------|
A|0-0-------------------------------8-8--7-7--|
D|0-0-------------------------------8-8--7-7--|
  + +                                         

E|----------------------------------------------------------------|
B|----------------------------------------------------------------|
G|----------------------------------------------------------------|
D|----------------------------------------------------------------|
A|----5-0-7-0-8-0-10-0-8-0-7h8p7--------10-0-8-0-7~----7-0-8-0----|
D|0-0----------------------------10~8-8------------7-7---------10~|
  + +                               + +            + +            

E|----------------------------------------------------------------| x3
B|----------------------------------------------------------------|
G|----------------------------------------------------------------|
D|----3---5---7----8---7---5h7p5---------8---7---5~----5---7------|
A|------0---0---0----0---0--------7~-------0---0---------0---0--7~|
D|0-0-------------------------------8-8------------7-7------------|
  + +                               + +            + +            

E|----------------------------------------------------------------|
B|----------------------------------------------------------------|
G|--------------------------------------------12-12/14-14\10-10\9-|
D|---------------------------------------------x--x--x--x--x--x-x-|
A|----5-0-7-0-8-0-10-0-8-0-7h8p7----8-8--7-7--10-10/12-12\-8--8\7-|
D|0-0----------------------------10~8-8--7-7----------------------|
  + +                                                             
                                                                  
E|----------------------------------------------------------------|
B|----------------------------------------------------------------|
G|---------------------------------------------9--9/10-10\-7--7\6-|
D|----3---5---7----8---7---5h7p5---------------x--x--x--x--x--x-x-|
A|------0---0---0----0---0--------7~8-8--7-7---7--7/-8--8\-5--5\4-|
D|0-0-------------------------------8-8--7-7----------------------|
  + +                                                             

[Verse]
E|----------------------------------------------------------------------|
B|----------------------------------------------------------------------|
G|--------------17-17\15-15\14-12/14----------------12-12/14-14\10-10\9-|
D|7--7-7---------x--x--x--x--x--x--x-----------------x--x--x--x--x--x-x-|
A|5--5-5-5-5-0--15-15\13-13\12-10/12-8--8-8-----10--10-10/12-12\-8--8\7-|
D|-----------0-----------------------8--8-8-8-8-10----------------------|
         + +                                + +                           x2
                                                                        
E|----------------------------------------------------------------------|
B|----------------------------------------------------------------------|
G|--------------14-14\12-12\10--9/10-----------------9--9/10-10\-7--7\6-|
D|7--7-7---------x--x--x--x--x--x--x-----------------x--x--x--x--x--x-x-|
A|5--5-5-5-5-0--12-12\10-10\-8--7/-8-8--8-8-----10---7--7/-8--8\-5--5\4-|
D|-----------0-----------------------8--8-8-8-8-10----------------------|
         + +                                + +                         

(both guitars)
E|--------------------------------------------------------|
B|--------------------------------------------------------|
G|--------------------------------------------------------|
D|7-7-7-7-7---------------------3-3-3-3-3-5-5-5-5-5-5-5-5-|
A|5-5-5-5-5-0-0-0-0-0---------0-1-1-1-1-1-3-3-3-3-3-3-3-3-|
D|----------0-0-0-0-0---0-2-3-----------------------------|
  + + + +   + + + +     + + + + + + + +   + + + +   + +   

E|----------------------------------------------------------------------|
B|----------------------------------------------------------------------|
G|--------------17-17\15-15\14-12/14----------------12-12/14-14\10-10\9-|
D|7--7-7---------x--x--x--x--x--x--x-----------------x--x--x--x--x--x-x-|
A|5--5-5-5-5-0--15-15\13-13\12-10/12-8--8-8-----10--10-10/12-12\-8--8\7-|
D|-----------0-----------------------8--8-8-8-8-10----------------------|
         + +                                + +                         
                                                                        
E|----------------------------------------------------------------------|
B|----------------------------------------------------------------------|
G|--------------14-14\12-12\10--9/10-----------------9--9/10-10\-7--7\6-|
D|7--7-7---------x--x--x--x--x--x--x-----------------x--x--x--x--x--x-x-|
A|5--5-5-5-5-0--12-12\10-10\-8--7/-8-8--8-8-----10---7--7/-8--8\-5--5\4-|
D|-----------0-----------------------8--8-8-8-8-10----------------------|
         + +                                + +                         

[Interlude 1]
(both guitars)
E|------------------------------------------------|
B|------------------------------------------------|
G|------------------------------------------------|
D|------------------------------------------------|
A|0-0---------0-0---------0-0---------0-0---------|
D|0-0--00000--0-0--00000--0-0--00000--0-0--00000--|
  + +  +++++  + +  +++++  + +  +++++  + +  +++++  

Pre-Chorus(Interlude 1 is being play during this riff)
E|--------------------------------------------------------|
B|--------------------------------------------------------|
G|--------------------------------------------------------|
D|------------------------------------------7p0-8p0-7p0-6~| x2
A|----7-0-8-----7-0-8-----5---4~----7p0-8p0---------------|
D|0-0-------0-0-------0-0---0---0-0-----------------------|
  + +   +   + +   +   + +   +   + +                     * 

[Chorus]
(both guitars)
E|---------------------------------------------------------------|
B|---------------------------------------------------------------|
G|---------------------------------------------------------------|
D|7----------5--5-5-3-2h3p2------------------3---3-3-3-3-3-3-3-3-|
A|5---0------3--3-3---------5-3p0-3---3--3-3-1---1-1-1-1-1-1-1-1-|
D|----0--2-3----------------------3---3--3-3---------------------|
                                                                  x2
E|-------------------------------------------------------------|
B|-------------------------------------------------------------|
G|-------------------------------------------------------------|
D|7----------5-5-5-5-5-5-5-5-5-5-------------------------------|
A|5---0------3-3-3-3-3-3-3-3-3-3-3---3--3-3-3-5-5-5--5---------|
D|----0--2-3---------------------3---3--3-3-3-5-5-5--3---------|

[Interlude 2]
E|-------------------------------------------------------|
B|-------------------------------------------------------|
G|-------------------------------------------------------|
D|7-5-7~~-------5-7-5~~----------------------------------|
A|-------8-7-8~~-------7-6-7~~4--5--8--7--5--4~~8-7-8~~--|
D|-------------------------------------------------------|
                                                           x2
E|-------------------------------------------------------|
B|-------------------------------------------------------|
G|-------------------------------------------------------|
D|3-2-3~~-------2-3-2~~----------------------------------|
A|-------5-4-5~~-------4-3-4~~0--1--4--3--1--0--4-3-4~~--|
D|-------------------------------------------------------|

E|----------------------------------------------------------------|
B|----------------------------------------------------------------|
G|----------------------------------------------------------------|
D|----------------------------------------------------------------|
A|----5-0-7-0-8-0-10-0-8-0-7h8p7--------10-0-8-0-7~----7-0-8-0----|
D|0-0----------------------------10~8-8------------7-7---------10~|
  + +                               + +            + +            
E|----------------------------------------------------------------|
B|----------------------------------------------------------------|
G|----------------------------------------------------------------|
D|----------------------------------------------------------------|
A|0---------------------------------------------------------------|
D|0---------------------------------------------------------------|

E|--------------------------------------------|
B|--------------------------------------------|
G|--------------------------------------------|
D|--------------------------------------------|
A|----5-0-7-0-8-0-10-0-8-0-7h8p7----8-8--7-7--|
D|0-0----------------------------10~8-8--7-7--|
  + +                                         
                                            
E|--------------------------------------------|
B|--------------------------------------------|
G|--------------------------------------------|
D|--------------------------------------------|
A|0-0-------------------------------8-8--7-7--|
D|0-0-------------------------------8-8--7-7--|
  + +                                         

[Verse]
E|----------------------------------------------------------------|
B|----------------------------------------------------------------|
G|----------------------------------------------------------------|
D|----------------------------------------------------------------|
A|----5-0-7-0-8-0-10-0-8-0-7h8p7--------10-0-8-0-7~----7-0-8-0----|
D|0-0----------------------------10~8-8------------7-7---------10~|
  + +                               + +            + +            
                                                                    x4
E|----------------------------------------------------------------|
B|----------------------------------------------------------------|
G|----------------------------------------------------------------|
D|----3---5---7----8---7---5h7p5---------8---7---5~----5---7------|
A|------0---0---0----0---0--------7~-------0---0---------0---0--7~|
D|0-0-------------------------------8-8------------7-7------------|
  + +                               + +            + +            

(both guitars)
E|------------------------------------------------|
B|------------------------------------------------|
G|------------------------------------------------|
D|------------------------------------------------|
A|0-0-0-0-0-0-0-0-0-0-0-0-0-0-0-0-0-0-0-0-0-0-0-0-|
D|0-0-0-0-0-0-0-0-0-0-0-0-0-0-0-0-0-0-0-0-0-0-0-0-|
  + + + + + + + + + + + + + + + + + + + + + + + + 

(both guitars)
E|---------------------------------------------------------|
B|---------------------------------------------------------|
G|---------------------------------------------------------|
D|---------------------------------------------------------|
A|0-12-11-0-10-9-8-0-/7-0-6-5-0-/12-11-0-/10-9-8-0-7-0-6-5-|
D|0-12-11-0-10-9-8-0-/7-0-6-5-0-/12-11-0-/10-9-8-0-7-0-6-5-|
                                             +

[Interlude 1]
(both guitars)
E|------------------------------------------------|
B|------------------------------------------------|
G|------------------------------------------------|
D|------------------------------------------------|
A|0-0---------0-0---------0-0---------0-0---------|
D|0-0--00000--0-0--00000--0-0--00000--0-0--00000--|
  + +  +++++  + +  +++++  + +  +++++  + +  +++++  

[Pre-Chorus]
(Interlude 1 is being played during this riff)
E|--------------------------------------------------------|
B|--------------------------------------------------------|
G|--------------------------------------------------------|-_
D|------------------------------------------7p0-8p0-7p0-6~| _-X2
A|----7-0-8-----7-0-8-----5---4~----7p0-8p0---------------|-
D|0-0-------0-0-------0-0---0---0-0-----------------------|
  + +   +   + +   +   + +   +   + +                     * 

[Interlude 3]
(Interlude 1 is being played during this riff)
E|--------------------------|
B|--------------------------|
G|--------------------------|X4 
D|--------------------------|
A|--------------------------|
D|0-11--0-10--0-8--0-6-0-5--|
     ^     ^    ^    ^   ^                   

(Both guitars)
E|-------------------------|
B|-------------------------|
G|-------------------------|
D|-------------------------|
A|---------------------7-4-|
D|0-5--0-5--0-5~~0-3-0-5-2-|
    ^    ^

[Chorus]
(the very last chord is held until the Outro)
E|---------------------------------------------------------------|
B|---------------------------------------------------------------|
G|---------------------------------------------------------------|
D|7----------5--5-5-3-2h3p2------------------3---3-3-3-3-3-3-3-3-|
A|5---0------3--3-3---------5-3p0-3---3--3-3-1---1-1-1-1-1-1-1-1-|
D|----0--2-3----------------------3---3--3-3---------------------|
                                                                  x2
E|-------------------------------------------------------------|
B|-------------------------------------------------------------|
G|-------------------------------------------------------------|
D|7----------5-5-5-5-5-5-5-5-5-5-------------------------------|
A|5---0------3-3-3-3-3-3-3-3-3-3-3---3--3-3-3-5-5-5--5---------|
D|----0--2-3---------------------3---3--3-3-3-5-5-5--3---------|

[Outro]
(Interlude 1 is played twice during this riff)
E|-------------------------|
B|-------------------------|
G|-------------------------|X8
D|-------------------------|
A|-------------------------|
D|0-11--0-10--0-8--0-6-0-5-|
     ^     ^    ^    ^   ^ 
(Both guitars) 
E|----|
B|----|
G|----|
D|----|
A|0-0-|
D|0-0-|
  + +

************************************

| h  Hammer-on
| p  Pull-off
| ~  Vibrato
| /  Slide up
| \  Slide down
| x  Dead note

************************************
Suggest correction
comments
print report bad tab
8 comments total. Showing first comments.
0 reply
th_brck_rcks 456 Jun 11, 2009 03:48 PM

hey peoples sorry about how it looks with the number of times of how each riff is played but im tryin to fix that mkay, thanx for understanding that

0 reply
AV-DI-SL 10 Aug 01, 2009 04:20 PM

awesome dude i thinks theres like one mess up but idk but awesome

0 reply
pearldrums11 365 Sep 01, 2009 06:55 PM

this is pretty good tab, a few slip ups but not too many!

guest
You may want to rate the tab now too:
select rating
Wanna post a correction for this tab? Suggest correction