Oops, an error
Loading. Please wait.
We have an official Unholy Confessions tab made by UG professional guitarists. Check out the tab »
×
2,070 views 6 this week
no commentswrite comment
1 2 3 4 5
2 more votes to show rating
add to favorites
launch autoscroll
font size
0
reset
how to read this tab
guitar tuner
backing track
0:00
0:00
×
Best way to learn
"Unholy Confessions"
Autoscroll
slow
fast
+/-
esc
set tempo
stop
Author
Difficulty
Tuning
  follow
intermediate
D A D G B E
   Unholy Confessions - Avenged Sevenfold

   Droped D tuning ( D A D G B E )


   * = Palm mute
   h = Hammer on
   P = Pull Off
   / = Slide
   ph = Pinch Harmonic

   
   Intro

   
   Synyster Gates - Guitar 1
   |--------------------------------------------------------------------|
   |--------------------------------------------------------------------|
   |--------------------------------------------------------------------|
   |--------------------------------------------------------------------|
   |--0-0---------------------------------------------------------------|
   |--0-0---------------------------------------------------------------|
      * *

   Zack Vengeance - Guitar 2
   |--------------------------------------------------------------------|
   |--------------------------------------------------------------------|
   |--------------------------------------------------------------------|
   |--------------------------------------------------------------------|
   |------5---7---8---10---8---7h8p7---------10--8---7------7---8-------|
   |--0-0---0---0---0----0---0-------10--8-8---8---8----7-7---7---7-10--|
      * *   *   *   *    *   *           * *   *   *    * *   *   * 


   Guitar 1
   |--------------------------------------------------------------------|
   |--------------------------------------------------------------------|
   |--------------------------------------------------------------------|
   |-------------------------------------8-8--7-7-----------------------|
   |--0-0--------------------------------8-8--7-7-----------------------|
   |--0-0--------------------------------8-8--7-7-----------------------|
      * *

   Guitar 2 
   |--------------------------------------------------------------------|
   |--------------------------------------------------------------------|
   |--------------------------------------------------------------------|
   |-------------------------------------8-8--7-7-----------------------|
   |------5---7---8---10---8---7h8p7-----8-8--7-7-----------------------|
   |--0-0---0---0---0----0---0-------10--8-8--7-7-----------------------|
      * *   *   *   *    *   *


   Guitar 1
   |--------------------------------------------------------------------|
   |--------------------------------------------------------------------|
   |--------------------------------------------------------------------| 
   |-----3---5---7---8---7---5h7p5--------8---------------------7-------|   x3       
   |-------------------------------7----------12---10------10-------8---|
   |--0-0--0---0---0---0---0----------8-8---8----8-----7-7----7---7-----|
      * *  *   *   *   *   *          * *   *    *     * *    *   * 


   Guitar 2
   |--------------------------------------------------------------------|
   |--------------------------------------------------------------------|
   |--------------------------------------------------------------------|
   |--------------------------------------------------------------------|   x3
   |------5---7---8---10---8---7h8p7---------10--8---7------7---8-------|
   |--0-0---0---0---0----0---0-------10--8-8---8---8----7-7---7---7-10--|
      * *   *   *   *    *   *           * *   *   *    * *   *   *



   Guitar 1
   |--------------------------------------------------------------------|
   |--------------------------------------------------------------------|
   |---------------------------------------------12-12/14-14/10-10/9-9--|
   |------3---5---7---8---7---5h7p5----8-8--7-7--x--x--x--x--x--x--x-x--|
   |--------------------------------7--8-8--7-7--10-10/12-12/8--8/-7-7--|
   |--0-0---0---0---0---0---0----------8-8--7-7-------------------------|
      * *   *   *   *   *   *


   Guitar 2 
   |--------------------------------------------------------------------|
   |--------------------------------------------------------------------|
   |--------------------------------------------------------------------|
   |-------------------------------------8-8--7-7-----------------------|
   |------5---7---8---10---8---7h8p7-----8-8--7-7-----------------------|
   |--0-0---0---0---0----0---0-------10--8-8--7-7-----------------------|
      * *   *   *   *    *   *


   Verse


   Guitar 1
   |----------------------------------------------------------------------|
   |----------------------------------------------------------------------|
   |--7--7-7----17-17/15-15/10-10/15-15-------------12-12/14-14/10-10/9-9-|
   |--7--7-7-0--x--x---x--x--x--x--x--x--8--8-8-10--x--x--x-x---x--x--x-x-|   x2
   |--5--5-5-0--15-15/13-13/12-12/13-13--8--8-8-10--10-10/12-12/8--8/-7-7-|
   |---------0---------------------------8--8-8-10------------------------|



   Guitar 2
   |----------------------------------------------------------------------|
   |----------------------------------------------------------------------|
   |--7--7-7----14-14/12-12/10-10/12-12-------------9-9/10-10/7-7-6-6-----|
   |--7--7-7-0--x--x--x--x--x--x--x--x---8--8-8-10--x-x-x--x--x-x-x-x-----|   x2
   |--5--5-5-0--12-12/10-10/8--8/-10-10--8--8-8-10--7-7/8--8/-5-5/4-4-----|
   |---------0---------------------------8--8-8-10------------------------|



   Guitar 1&2
   |----------------------------------------------------------------------|
   |----------------------------------------------------------------------|
   |----------7---------------------------------3----------5------5-------|
   |--7-7-7-7-7----------0--------------3-3-3-3-3--5-5-5-5-5--5-5-5-------|
   |--5-5-5-5-5--0-0-0-0-0-----------0--1-1-1-1-1--3-3-3-3-3--3-3-3-------|
   |-------------0-0-0-0-0--0--2--3---------------------------------------|
      * * * *    * * * *                * * * *    * * * *    * * 

   
    Guitar 1
   |----------------------------------------------------------------------|
   |----------------------------------------------------------------------|
   |--7--7-7----17-17/15-15/10-10/15-15-------------12-12/14-14/10-10/9-9-|
   |--7--7-7-0--x--x---x--x--x--x--x--x--8--8-8-10--x--x--x-x---x--x--x-x-|   
   |--5--5-5-0--15-15/13-13/12-12/13-13--8--8-8-10--10-10/12-12/8--8/-7-7-|
   |---------0---------------------------8--8-8-10------------------------|


   
   Guitar 2
   |----------------------------------------------------------------------|
   |----------------------------------------------------------------------|
   |--7--7-7----14-14/12-12/10-10/12-12-------------9-9/10-10/7-7-6-6-----|
   |--7--7-7-0--x--x--x--x--x--x--x--x---8--8-8-10--x-x-x--x--x-x-x-x-----|  
   |--5--5-5-0--12-12/10-10/8--8/-10-10--8--8-8-10--7-7/8--8/-5-5/4-4-----|
   |---------0---------------------------8--8-8-10------------------------|


   Guitar 1&2
   |----------------------------------------------------------------------|
   |----------------------------------------------------------------------|
   |----------------------------------------------------------------------|
   |----------------------------------------------------------------------|
   |--0--0-------------0--0-------------0--0-------------0--0-------------|
   |--0--0--0-0-0-0-0--0--0--0-0-0-0-0--0--0--0-0-0-0-0--0--0--0-0-0-0-0--|
      *  *  * * * * *  *  *  * * * * *  *  *  * * * * *  *  *  * * * * *

   Guitar 1
   |----------------------------------------------------------------------|
   |----------------------------------------------------------------------|
   |----------------------------------------------------------------------|
   |----------------------------------------------7---8-------------------| X2
   |------7---8-----7---8-----5---4-----7---8-------------4---------------|
   |--0-0---0---0-0---0---0-0---0---0-0---0---0-0---0---0-----------------|
      * *   *   * *   *   * *   *   * *   *   * *   *   * PH 


   Guitar 2
   |----------------------------------------------------------------------|
   |----------------------------------------------------------------------|
   |----------------------------------------------------------------------|
   |----------------------------------------------------------------------|
   |--0--0-------------0--0-------------0--0-------------0--0-------------|
   |--0--0--0-0-0-0-0--0--0--0-0-0-0-0--0--0--0-0-0-0-0--0--0--0-0-0-0-0--|
      *  *  * * * * *  *  *  * * * * *  *  *  * * * * *  *  *  * * * * *


   
   Chorus
   

   Guitar 1&2
   |-----------------------------------------------------------------------------------------|
   |-----------------------------------------------------------------------------------------|
   |--7--7-7-------5--5-------------------------3-3-3--7--7-7-------5--5---------------------|
   |--7--7-7-0-2-3-5--5--3-2h3p2------3-3-3-3-3-3-3-3--7--7-7-0-2-3-5--5--3-3-3-3-3-5--5--3--|  x2
   |--5--5-5-0-2-3-3--3----------5-3--3-3-3-3-3-1-1-1--5--5-5-0-2-3-3--3--3-3-3-3-3-5--5--5--|
   |---------0-2-3--------------------3-3-3-3-3---------------0-2-3-------3-3-3-3-3-5--5--3--|



   Harmony

   Guitar 1
   |--------------------------------------------------------------|
   |--------------------------------------------------------------|
   |--------------------------------------------------------------|
   |--/7-5-7---------/5-7-5---------------------------------------|  x2
   |---------/8-7-8---------/7-5-7--/4-5-/8-7-5-4--/8-7-8---------|
   |--------------------------------------------------------------|


   Guitar 2
   |--------------------------------------------------------------|
   |--------------------------------------------------------------|
   |--------------------------------------------------------------|
   |--/3-2-3----------/2-3-2--------------------------------------|  x2
   |----------/5-3-5----------/3-1-3--0-1-5-3-1-0--/5-3-5---------|
   |--------------------------------------------------------------|




   Intro
  

   Guitar 1
   |--------------------------------------------------------------------|
   |--------------------------------------------------------------------|
   |--------------------------------------------------------------------|
   |--------------------------------------------------------------------|
   |--0-0---------------------------------------------------------------|
   |--0-0---------------------------------------------------------------|
      * *
   

   Guitar 2
   |--------------------------------------------------------------------|
   |--------------------------------------------------------------------|
   |--------------------------------------------------------------------|
   |--------------------------------------------------------------------|
   |------5---7---8---10---8---7h8p7---------10--8---7------7---8-------|
   |--0-0---0---0---0----0---0-------10--8-8---8---8----7-7---7---7-10--|
      * *   *   *   *    *   *           * *   *   *    * *   *   * 



   Guitar 1
   |--------------------------------------------------------------------|
   |--------------------------------------------------------------------|
   |--------------------------------------------------------------------|
   |--0----------------------------------8-8--7-7-----------------------|
   |--0----------------------------------8-8--7-7-----------------------|
   |--0----------------------------------8-8--7-7-----------------------|
       


 
   Guitar 2 
   |--------------------------------------------------------------------|
   |--------------------------------------------------------------------|
   |--------------------------------------------------------------------|
   |-------------------------------------8-8--7-7-----------------------|
   |------5---7---8---10---8---7h8p7-----8-8--7-7-----------------------|
   |--0-0---0---0---0----0---0-------10--8-8--7-7-----------------------|
      * *   *   *   *    *   *



   Guitar 1
   |--------------------------------------------------------------------|
   |--------------------------------------------------------------------|
   |--------------------------------------------------------------------| 
   |-----3---5---7---8---7---5h7p5--------8---------------------7-------|   x3       
   |-------------------------------7----------12---10------10-------8---|
   |--0-0--0---0---0---0---0----------8-8---8----8-----7-7----7---7-----|
      * *  *   *   *   *   *          * *   *    *     * *    *   * 



   Guitar 2
   |--------------------------------------------------------------------|
   |--------------------------------------------------------------------|
   |--------------------------------------------------------------------|
   |--------------------------------------------------------------------|   x3
   |------5---7---8---10---8---7h8p7---------10--8---7------7---8-------|
   |--0-0---0---0---0----0---0-------10--8-8---8---8----7-7---7---7-10--|
      * *   *   *   *    *   *           * *   *   *    * *   *   *



   Breakdown


   Guitar 1&2
   |--------------------------------------------------------------------------|
   |--------------------------------------------------------------------------|
   |--------------------------------------------------------------------------|
   |--------------------------------------------------------------------------|
   |--0--0--0--0--0--0--0--0--0--0--0--0--0--0--0--0--0--0--0--0--0--0--0--0--|
   |--0--0--0--0--0--0--0--0--0--0--0--0--0--0--0--0--0--0--0--0--0--0--0--0--|
      *  *  *  *  *  *  *  *  *  *  *  *  *  *  *  *  *  *  *  *  *  *  *  *


   
   Guitar 1&2
   |---------------------------------------------------------------------------|
   |---------------------------------------------------------------------------|
   |---------------------------------------------------------------------------|
   |---------------------------------------------------------------------------|
   |--0--12-11--0--10-9-8--0--7--0--6-5--0--12-11--0--10-9-8--0--7--0--6-5-----|
   |--0--12-11--0--10-9-8--0--7--0--6-5--0--12-11--0--10-9-8--0--7--0--6-5-----|


   
   Guitar 1&2
   |----------------------------------------------------------------------|
   |----------------------------------------------------------------------|
   |----------------------------------------------------------------------|
   |----------------------------------------------------------------------|
   |--0--0-------------0--0-------------0--0-------------0--0-------------|
   |--0--0--0-0-0-0-0--0--0--0-0-0-0-0--0--0--0-0-0-0-0--0--0--0-0-0-0-0--|
      *  *  * * * * *  *  *  * * * * *  *  *  * * * * *  *  *  * * * * * 
  

   Guitar 1
   |----------------------------------------------------------------------|
   |----------------------------------------------------------------------|
   |----------------------------------------------------------------------|
   |----------------------------------------------7---8-------------------| X2
   |------7---8-----7---8-----5---4-----7---8-------------4---------------|
   |--0-0---0---0-0---0---0-0---0---0-0---0---0-0---0---0-----------------|
      * *   *   * *   *   * *   *   * *   *   * *   *   * PH 


   Guitar 2
   |----------------------------------------------------------------------|
   |----------------------------------------------------------------------|
   |----------------------------------------------------------------------|
   |----------------------------------------------------------------------|
   |--0--0-------------0--0-------------0--0-------------0--0-------------|
   |--0--0--0-0-0-0-0--0--0--0-0-0-0-0--0--0--0-0-0-0-0--0--0--0-0-0-0-0--|
      *  *  * * * * *  *  *  * * * * *  *  *  * * * * *  *  *  * * * * *


 
   Guitar 1
   |-----------------------------------------------------------------|
   |-----------------------------------------------------------------|
   |-----------------------------------------------------------------|
   |-----------------------------------------------------------------|  X2
   |-----------------------------------------------------------------|
   |--0-12b-0-10b-0-8b-0-7-0-5b--0-12b-0-10b-0-8b-0-7-0-5b--0--5b----|




   Guitar 2
   |----------------------------------------------------------------------|
   |----------------------------------------------------------------------|
   |----------------------------------------------------------------------|
   |----------------------------------------------------------------------|
   |--0--0-------------0--0-------------0--0-------------0--0-------------|
   |--0--0--0-0-0-0-0--0--0--0-0-0-0-0--0--0--0-0-0-0-0--0--0--0-0-0-0-0--|
      *  *  * * * * *  *  *  * * * * *  *  *  * * * * *  *  *  * * * * *



   Guitar 1&2
   |----------------------------------------------|
   |----------------------------------------------|
   |----------------------------------------------|
   |----------------------------------------------|
   |-----------------------------7--4-------------|
   |--0--5b--0--5b--0--5--0-3-0--5--2-------------|


   
   Final Chorus
   
   Guitar 1&2
   |-----------------------------------------------------------------------------------------|
   |-----------------------------------------------------------------------------------------|
   |--7--7-7-------5--5-------------------------3-3-3--7--7-7-------5--5---------------------|
   |--7--7-7-0-2-3-5--5--3-2h3p2------3-3-3-3-3-3-3-3--7--7-7-0-2-3-5--5--3-3-3-3-3-5--5--3--|  x2
   |--5--5-5-0-2-3-3--3----------5-3--3-3-3-3-3-1-1-1--5--5-5-0-2-3-3--3--3-3-3-3-3-5--5--5--|
   |---------0-2-3--------------------3-3-3-3-3---------------0-2-3-------3-3-3-3-3-5--5--3--|


   Outro

   Guitar 1
   |-----------------------------------------------------------------|
   |-----------------------------------------------------------------|
   |-----------------------------------------------------------------|
   |-----------------------------------------------------------------|  X2
   |-----------------------------------------------------------------|
   |--0-12b-0-10b-0-8b-0-7-0-5b--0-12b-0-10b-0-8b-0-7-0-5b--0--5b----|


   Guitar 2
   |----------------------------------------------------------------------|
   |----------------------------------------------------------------------|
   |----------------------------------------------------------------------|
   |----------------------------------------------------------------------|
   |--0--0-------------0--0-------------0--0-------------0--0-------------|
   |--0--0--0-0-0-0-0--0--0--0-0-0-0-0--0--0--0-0-0-0-0--0--0--0-0-0-0-0--|
      *  *  * * * * *  *  *  * * * * *  *  *  * * * * *  *  *  * * * * *
 
 
   Guitars 1&2
   |---------|
   |---------|
   |---------|
   |--0-0----|  Both guitars end on this.
   |--0-0----|
   |--0-0----|



  After Struggling to find a accurate version of this song i decided to tab this 
out, it is 100% right.
  if you have any questions feel free to email me at christophmac@hotmail.co.uk.
Suggest correction
Give kudos to tab author, rate the tab!
1 2 3 4 5
comments
print report bad tab
guest
You may want to rate the tab now too:
select rating
Wanna post a correction for this tab? Suggest correction